  0
SECTION
  2
HEADER
  9
$ACADVER
  1
AC1015
  9
$DWGCODEPAGE
  3
ANSI_932
  9
$EXTMIN
 10
2109.570814133
 20
2372.498962402
  9
$EXTMAX
 10
6800.429185867
 20
3927.501037598
  9
$LIMMIN
 10
0
 20
0
  9
$LIMMAX
 10
8910
 20
6300
  9
$LTSCALE
 40
30
  9
$DIMSCALE
 40
30
  9
$DIMSTYLE
  2
M7DIMSTL
  9
$HANDSEED
  5
7FFFFFFF
  9
$PSLTSCALE
 70
     0
  9
$MEASUREMENT
 70
     1
  0
ENDSEC
  0
SECTION
  2
CLASSES
  0
CLASS
  1
CSOFTARXCLASS
  2
CSoftArxClass
  3
CSRasterApi
 90
     0
280
     0
281
     0
  0
CLASS
  1
IMAGEDEF
  2
AcDbRasterImageDef
  3
ISM
 90
     0
280
     0
281
     0
  0
CLASS
  1
RASTERVARIABLES
  2
AcDbRasterVariables
  3
ISM
 90
     0
280
     0
281
     0
  0
CLASS
  1
IMAGE
  2
AcDbRasterImage
  3
ISM
 90
   127
280
     0
281
     0
  0
CLASS
  1
IMAGEDEF_REACTOR
  2
AcDbRasterImageDefReactor
  3
ISM
 90
     1
280
     0
281
     0
  0
CLASS
  1
HATCH
  2
AcDbHatch
  3
M7
 90
     0
280
     0
281
     1
  0
ENDSEC
  0
SECTION
  2
TABLES
  0
TABLE
  2
VPORT
  5
FF
100
AcDbSymbolTable
 70
     5
  0
VPORT
  5
100
100
AcDbSymbolTableRecord
100
AcDbViewportTableRecord
  2
*ACTIVE
 70
     0
 10
0
 20
0
 11
1
 21
1
 12
4455
 22
3150
 13
0
 23
0
 14
0
 24
0
 15
0
 25
0
 16
0
 26
0
 36
1
 17
0
 27
0
 37
0
 40
3150
 41
1.414285714286
 42
50
 43
0
 44
0
 50
0
 51
0
 71
     0
 72
   100
 73
     1
 74
     3
 75
     0
 76
     0
 77
     0
 78
     0
  0
ENDTAB
  0
TABLE
  2
LTYPE
  5
101
100
AcDbSymbolTable
 70
     1
  0
LTYPE
  5
102
100
AcDbSymbolTableRecord
100
AcDbLinetypeTableRecord
  2
BYBLOCK
 70
     0
  3

 72
    65
 73
     0
 40
0
  0
LTYPE
  5
103
100
AcDbSymbolTableRecord
100
AcDbLinetypeTableRecord
  2
BYLAYER
 70
     0
  3

 72
    65
 73
     0
 40
0
  0
LTYPE
  5
104
100
AcDbSymbolTableRecord
100
AcDbLinetypeTableRecord
  2
CONTINUOUS
 70
     0
  3
Solid line
 72
    65
 73
     0
 40
0
  0
LTYPE
  5
105
100
AcDbSymbolTableRecord
100
AcDbLinetypeTableRecord
  2
DOT
 70
     0
  3
...............................
 72
    65
 73
     2
 40
2
 49
1
 74
     0
 49
-1
 74
     0
  0
LTYPE
  5
106
100
AcDbSymbolTableRecord
100
AcDbLinetypeTableRecord
  2
DASHED
 70
     0
  3
- - - - - - - - - - - - - - - -
 72
    65
 73
     2
 40
4
 49
2
 74
     0
 49
-2
 74
     0
  0
LTYPE
  5
107
100
AcDbSymbolTableRecord
100
AcDbLinetypeTableRecord
  2
DASHED2
 70
     0
  3
-- -- -- -- -- -- -- -- -- -- -
 72
    65
 73
     2
 40
8
 49
5
 74
     0
 49
-3
 74
     0
  0
LTYPE
  5
108
100
AcDbSymbolTableRecord
100
AcDbLinetypeTableRecord
  2
CENTER
 70
     0
  3
--------- - --------- - -------
 72
    65
 73
     4
 40
23
 49
20
 74
     0
 49
-1
 74
     0
 49
1
 74
     0
 49
-1
 74
     0
  0
LTYPE
  5
109
100
AcDbSymbolTableRecord
100
AcDbLinetypeTableRecord
  2
CENTERX2
 70
     0
  3
-------------- - --------------
 72
    65
 73
     4
 40
43
 49
40
 74
     0
 49
-1
 74
     0
 49
1
 74
     0
 49
-1
 74
     0
  0
LTYPE
  5
10A
100
AcDbSymbolTableRecord
100
AcDbLinetypeTableRecord
  2
CENTER2
 70
     0
  3
------ - ----- - ------ - -----
 72
    65
 73
     4
 40
13
 49
10
 74
     0
 49
-1
 74
     0
 49
1
 74
     0
 49
-1
 74
     0
  0
LTYPE
  5
10B
100
AcDbSymbolTableRecord
100
AcDbLinetypeTableRecord
  2
PHANTOM
 70
     0
  3
-------- - - ------- - - ------
 72
    65
 73
     6
 40
25
 49
20
 74
     0
 49
-1
 74
     0
 49
1
 74
     0
 49
-1
 74
     0
 49
1
 74
     0
 49
-1
 74
     0
  0
LTYPE
  5
10C
100
AcDbSymbolTableRecord
100
AcDbLinetypeTableRecord
  2
PHANTOMX2
 70
     0
  3
------------- - - -------------
 72
    65
 73
     6
 40
45
 49
40
 74
     0
 49
-1
 74
     0
 49
1
 74
     0
 49
-1
 74
     0
 49
1
 74
     0
 49
-1
 74
     0
  0
LTYPE
  5
10D
100
AcDbSymbolTableRecord
100
AcDbLinetypeTableRecord
  2
PHANTOM2
 70
     0
  3
---- - - ---- - - ---- - - ----
 72
    65
 73
     6
 40
15
 49
10
 74
     0
 49
-1
 74
     0
 49
1
 74
     0
 49
-1
 74
     0
 49
1
 74
     0
 49
-1
 74
     0
  0
LTYPE
  5
10E
100
AcDbSymbolTableRecord
100
AcDbLinetypeTableRecord
  2
ACAD_ISO06W100
 70
     0
  3
------------ - - - ------------
 72
    65
 73
     8
 40
47
 49
40
 74
     0
 49
-1
 74
     0
 49
1
 74
     0
 49
-1
 74
     0
 49
1
 74
     0
 49
-1
 74
     0
 49
1
 74
     0
 49
-1
 74
     0
  0
LTYPE
  5
10F
100
AcDbSymbolTableRecord
100
AcDbLinetypeTableRecord
  2
ACAD_ISO14W100
 70
     0
  3
---- - - - -------- - - - -----
 72
    65
 73
     8
 40
27
 49
20
 74
     0
 49
-1
 74
     0
 49
1
 74
     0
 49
-1
 74
     0
 49
1
 74
     0
 49
-1
 74
     0
 49
1
 74
     0
 49
-1
 74
     0
  0
LTYPE
  5
110
100
AcDbSymbolTableRecord
100
AcDbLinetypeTableRecord
  2
ACAD_ISO11W100
 70
     0
  3
------- ------ - ------- ------
 72
    65
 73
     6
 40
44
 49
20
 74
     0
 49
-1
 74
     0
 49
20
 74
     0
 49
-1
 74
     0
 49
1
 74
     0
 49
-1
 74
     0
  0
LTYPE
  5
111
100
AcDbSymbolTableRecord
100
AcDbLinetypeTableRecord
  2
ACAD_ISO13W100
 70
     0
  3
------ ------ - - ------ ------
 72
    65
 73
     8
 40
46
 49
20
 74
     0
 49
-1
 74
     0
 49
20
 74
     0
 49
-1
 74
     0
 49
1
 74
     0
 49
-1
 74
     0
 49
1
 74
     0
 49
-1
 74
     0
  0
LTYPE
  5
112
100
AcDbSymbolTableRecord
100
AcDbLinetypeTableRecord
  2
ACAD_ISO15W100
 70
     0
  3
------ ----- - - - ------ -----
 72
    65
 73
    10
 40
48
 49
20
 74
     0
 49
-1
 74
     0
 49
20
 74
     0
 49
-1
 74
     0
 49
1
 74
     0
 49
-1
 74
     0
 49
1
 74
     0
 49
-1
 74
     0
 49
1
 74
     0
 49
-1
 74
     0
  0
LTYPE
  5
113
100
AcDbSymbolTableRecord
100
AcDbLinetypeTableRecord
  2
HIDDEN
 70
     0
  3
. . . . . . . . . . . . . . . .
 72
    65
 73
     2
 40
1.5
 49
1
 74
     0
 49
-0.5
 74
     0
  0
ENDTAB
  0
TABLE
  2
LAYER
  5
114
100
AcDbSymbolTable
 70
     1
  0
LAYER
  5
115
100
AcDbSymbolTableRecord
100
AcDbLayerTableRecord
  2
0
 70
     0
 62
     7
  6
CONTINUOUS
390
116
  0
LAYER
  5
117
100
AcDbSymbolTableRecord
100
AcDbLayerTableRecord
  2
_0-0_
 70
     0
 62
     7
  6
CONTINUOUS
390
   278
  0
ENDTAB
  0
TABLE
  2
STYLE
  5
118
100
AcDbSymbolTable
 70
     1
  0
STYLE
  5
119
100
AcDbSymbolTableRecord
100
AcDbTextStyleTableRecord
  2
STANDARD
 70
     0
 40
0
 41
0
 50
0
 71
     0
 42
1
  3
txt
  4
bigfont
  0
STYLE
  5
11A
100
AcDbSymbolTableRecord
100
AcDbTextStyleTableRecord
  2
VSTANDARD
 70
     4
 40
0
 41
0
 50
0
 71
     0
 42
1
  3
txt
  4
bigfont
  0
ENDTAB
  0
TABLE
  2
VIEW
  5
11B
100
AcDbSymbolTable
 70
     0
  0
ENDTAB
  0
TABLE
  2
UCS
  5
11C
100
AcDbSymbolTable
 70
     0
  0
ENDTAB
  0
TABLE
  2
APPID
  5
11D
100
AcDbSymbolTable
 70
     1
  0
APPID
  5
11E
100
AcDbSymbolTableRecord
100
AcDbRegAppTableRecord
  2
ACAD
 70
     0
  0
ENDTAB
  0
TABLE
  2
DIMSTYLE
  5
11F
100
AcDbSymbolTable
 70
     1
100
AcDbDimStyleTable
 71
     0
  0
DIMSTYLE
105
120
100
AcDbSymbolTableRecord
100
AcDbDimStyleTableRecord
  2
M7DIMSTL
 70
     0
  3

  4

  5

  6

  7

 40
30
 41
2.5
 42
0.625
 43
3.75
 44
1.25
 45
0
 46
0
 47
0
 48
0
140
2.5
141
2.5
142
0
143
0.03937007874016
144
1
145
0
146
1
147
0.625
 71
     0
 72
     0
 73
     0
 74
     0
 75
     0
 76
     0
 77
     1
 78
     8
170
     0
171
     3
172
     1
173
     0
174
     0
175
     0
176
     0
177
     0
178
     0
270
     2
271
     2
272
     2
273
     2
274
     3
340
119
275
     0
280
     0
281
     0
282
     0
283
     0
284
     8
285
     0
286
     0
287
     3
288
     0
  0
ENDTAB
  0
TABLE
  2
BLOCK_RECORD
  5
121
100
AcDbSymbolTable
 70
     2
  0
BLOCK_RECORD
  5
122
100
AcDbSymbolTableRecord
100
AcDbBlockTableRecord
  2
*MODEL_SPACE
  0
BLOCK_RECORD
  5
123
100
AcDbSymbolTableRecord
100
AcDbBlockTableRecord
  2
*PAPER_SPACE
  0
BLOCK_RECORD
  5
124
100
AcDbSymbolTableRecord
100
AcDbBlockTableRecord
  2
_DOT
  0
BLOCK_RECORD
  5
125
100
AcDbSymbolTableRecord
100
AcDbBlockTableRecord
  2
_OPEN30
  0
BLOCK_RECORD
  5
126
100
AcDbSymbolTableRecord
100
AcDbBlockTableRecord
  2
_ClosedBlank
  0
BLOCK_RECORD
  5
127
100
AcDbSymbolTableRecord
100
AcDbBlockTableRecord
  2
_Origin
  0
BLOCK_RECORD
  5
128
100
AcDbSymbolTableRecord
100
AcDbBlockTableRecord
  2
_Oblique
  0
BLOCK_RECORD
  5
129
100
AcDbSymbolTableRecord
100
AcDbBlockTableRecord
  2
_Origin2
  0
BLOCK_RECORD
  5
12A
100
AcDbSymbolTableRecord
100
AcDbBlockTableRecord
  2
_BoxBlank
  0
BLOCK_RECORD
  5
12B
100
AcDbSymbolTableRecord
100
AcDbBlockTableRecord
  2
_BoxFilled
  0
BLOCK_RECORD
  5
12C
100
AcDbSymbolTableRecord
100
AcDbBlockTableRecord
  2
_Integral
  0
ENDTAB
  0
ENDSEC
  0
SECTION
  2
BLOCKS
  0
BLOCK
  5
12D
100
AcDbEntity
  8
0
100
AcDbBlockBegin
  2
*MODEL_SPACE
 70
     0
 10
0
 20
0
  3
*MODEL_SPACE
  1

  0
ENDBLK
  5
12E
100
AcDbEntity
  8
0
100
AcDbBlockEnd
  0
BLOCK
  5
12F
100
AcDbEntity
 67
     1
  8
0
100
AcDbBlockBegin
  2
*PAPER_SPACE
 70
     0
 10
0
 20
0
  3
*PAPER_SPACE
  1

  0
ENDBLK
  5
130
100
AcDbEntity
 67
     1
  8
0
100
AcDbBlockEnd
  0
BLOCK
  5
131
100
AcDbEntity
 67
     1
  8
0
100
AcDbBlockBegin
  2
_DOT
 70
     0
 10
0
 20
0
  3
_DOT
  1

  0
LWPOLYLINE
  5
132
100
AcDbEntity
  8
0
  6
BYBLOCK
 62
     0
100
AcDbPolyline
 90
     2
 70
     1
 43
0.5
 10
-0.25
 20
0
 42
1
 10
0.25
 20
0
 42
1
  0
LINE
  5
133
100
AcDbEntity
  8
0
  6
BYBLOCK
 62
     0
100
AcDbLine
 10
-0.5
 20
0
 11
-1
 21
0
  0
ENDBLK
  5
134
100
AcDbEntity
  8
0
100
AcDbBlockEnd
  0
BLOCK
  5
135
100
AcDbEntity
 67
     1
  8
0
100
AcDbBlockBegin
  2
_OPEN30
 70
     0
 10
0
 20
0
  3
_OPEN30
  1

  0
LINE
  5
136
100
AcDbEntity
  8
0
  6
BYBLOCK
 62
     0
100
AcDbLine
 10
-1
 20
0.26794919
 11
0
 21
0
  0
LINE
  5
137
100
AcDbEntity
  8
0
  6
BYBLOCK
 62
     0
100
AcDbLine
 10
-1
 20
-0.26794919
 11
0
 21
0
  0
LINE
  5
138
100
AcDbEntity
  8
0
  6
BYBLOCK
 62
     0
100
AcDbLine
 10
0
 20
0
 11
-1
 21
0
  0
ENDBLK
  5
139
100
AcDbEntity
  8
0
100
AcDbBlockEnd
  0
BLOCK
  5
13A
100
AcDbEntity
 67
     1
  8
0
100
AcDbBlockBegin
  2
_ClosedBlank
 70
     0
 10
0
 20
0
  3
_ClosedBlank
  1

  0
LINE
  5
13B
100
AcDbEntity
  8
0
  6
BYBLOCK
 62
     0
100
AcDbLine
 10
-1
 20
0.1666666666667
 11
0
 21
0
  0
LINE
  5
13C
100
AcDbEntity
  8
0
  6
BYBLOCK
 62
     0
100
AcDbLine
 10
0
 20
0
 11
-1
 21
-0.1666666666667
  0
LINE
  5
13D
100
AcDbEntity
  8
0
  6
BYBLOCK
 62
     0
100
AcDbLine
 10
-1
 20
0.1666666666667
 11
-1
 21
-0.1666666666667
  0
ENDBLK
  5
13E
100
AcDbEntity
  8
0
100
AcDbBlockEnd
  0
BLOCK
  5
13F
100
AcDbEntity
 67
     1
  8
0
100
AcDbBlockBegin
  2
_Origin
 70
     0
 10
0
 20
0
  3
_Origin
  1

  0
CIRCLE
  5
140
100
AcDbEntity
  8
0
  6
BYBLOCK
 62
     0
100
AcDbCircle
 10
0
 20
0
 40
0.5
  0
LINE
  5
141
100
AcDbEntity
  8
0
  6
BYBLOCK
 62
     0
100
AcDbLine
 10
0
 20
0
 11
-1
 21
0
  0
ENDBLK
  5
142
100
AcDbEntity
  8
0
100
AcDbBlockEnd
  0
BLOCK
  5
143
100
AcDbEntity
 67
     1
  8
0
100
AcDbBlockBegin
  2
_Oblique
 70
     0
 10
0
 20
0
  3
_Oblique
  1

  0
LINE
  5
144
100
AcDbEntity
  8
0
  6
BYBLOCK
 62
     0
100
AcDbLine
 10
-0.5
 20
-0.5
 11
0.5
 21
0.5
  0
ENDBLK
  5
145
100
AcDbEntity
  8
0
100
AcDbBlockEnd
  0
BLOCK
  5
146
100
AcDbEntity
 67
     1
  8
0
100
AcDbBlockBegin
  2
_Origin2
 70
     0
 10
0
 20
0
  3
_Origin2
  1

  0
CIRCLE
  5
147
100
AcDbEntity
  8
0
  6
BYBLOCK
 62
     0
100
AcDbCircle
 10
0
 20
0
 40
0.5
  0
CIRCLE
  5
148
100
AcDbEntity
  8
0
  6
BYBLOCK
 62
     0
100
AcDbCircle
 10
0
 20
0
 40
0.25
  0
LINE
  5
149
100
AcDbEntity
  8
0
  6
BYBLOCK
 62
     0
100
AcDbLine
 10
-0.5
 20
0
 11
-1
 21
0
  0
ENDBLK
  5
14A
100
AcDbEntity
  8
0
100
AcDbBlockEnd
  0
BLOCK
  5
14B
100
AcDbEntity
 67
     1
  8
0
100
AcDbBlockBegin
  2
_BoxBlank
 70
     0
 10
0
 20
0
  3
_BoxBlank
  1

  0
LINE
  5
14C
100
AcDbEntity
  8
0
  6
BYBLOCK
 62
     0
100
AcDbLine
 10
-0.5
 20
-0.5
 11
0.5
 21
-0.5
  0
LINE
  5
14D
100
AcDbEntity
  8
0
  6
BYBLOCK
 62
     0
100
AcDbLine
 10
0.5
 20
-0.5
 11
0.5
 21
0.5
  0
LINE
  5
14E
100
AcDbEntity
  8
0
  6
BYBLOCK
 62
     0
100
AcDbLine
 10
0.5
 20
0.5
 11
-0.5
 21
0.5
  0
LINE
  5
14F
100
AcDbEntity
  8
0
  6
BYBLOCK
 62
     0
100
AcDbLine
 10
-0.5
 20
0.5
 11
-0.5
 21
-0.5
  0
LINE
  5
150
100
AcDbEntity
  8
0
  6
BYBLOCK
 62
     0
100
AcDbLine
 10
-0.5
 20
0
 11
-1
 21
0
  0
ENDBLK
  5
151
100
AcDbEntity
  8
0
100
AcDbBlockEnd
  0
BLOCK
  5
152
100
AcDbEntity
 67
     1
  8
0
100
AcDbBlockBegin
  2
_BoxFilled
 70
     0
 10
0
 20
0
  3
_BoxFilled
  1

  0
SOLID
  5
153
100
AcDbEntity
  8
0
  6
BYBLOCK
 62
     0
100
AcDbTrace
 10
-0.5
 20
0.5
 11
0.5
 21
0.5
 12
-0.5
 22
-0.5
 13
0.5
 23
-0.5
  0
LINE
  5
154
100
AcDbEntity
  8
0
  6
BYBLOCK
 62
     0
100
AcDbLine
 10
-0.5
 20
0
 11
-1
 21
0
  0
ENDBLK
  5
155
100
AcDbEntity
  8
0
100
AcDbBlockEnd
  0
BLOCK
  5
156
100
AcDbEntity
 67
     1
  8
0
100
AcDbBlockBegin
  2
_Integral
 70
     0
 10
0
 20
0
  3
_Integral
  1

  0
ARC
  5
157
100
AcDbEntity
  8
0
  6
BYBLOCK
 62
     0
100
AcDbCircle
 10
0.44488802
 20
-0.09133463
 40
0.45416667
100
AcDbArc
 50
101.999999998
 51
167.9999999799
  0
ARC
  5
158
100
AcDbEntity
  8
0
  6
BYBLOCK
 62
     0
100
AcDbCircle
 10
-0.44488802
 20
0.09133463
 40
0.45416667
100
AcDbArc
 50
282.0000000215
 51
348.0000000034
  0
ENDBLK
  5
159
100
AcDbEntity
  8
0
100
AcDbBlockEnd
  0
ENDSEC
  0
SECTION
  2
ENTITIES
  0
LINE
  5
15A
100
AcDbEntity
  8
_0-0_
  6
CONTINUOUS
 62
     0
100
AcDbLine
 10
4958.436510086
 20
2646.589294434
 11
5107.236803055
 21
2710.005615234
  0
LINE
  5
15B
100
AcDbEntity
  8
_0-0_
  6
CONTINUOUS
 62
     0
100
AcDbLine
 10
6116.450181961
 20
2744.884735107
 11
6116.450181961
 21
2524.949111938
  0
LINE
  5
15C
100
AcDbEntity
  8
_0-0_
  6
CONTINUOUS
 62
     0
100
AcDbLine
 10
4958.436510086
 20
2646.589294434
 11
3331.694444656
 21
2646.589294434
  0
LINE
  5
15D
100
AcDbEntity
  8
_0-0_
  6
CONTINUOUS
 62
     0
100
AcDbLine
 10
6078.063463211
 20
2805.130157471
 11
6078.063463211
 21
2512.485565186
  0
LINE
  5
15E
100
AcDbEntity
  8
_0-0_
  6
CONTINUOUS
 62
     0
100
AcDbLine
 10
6078.063463211
 20
2512.485565186
 11
6116.450181961
 21
2524.949111938
  0
LINE
  5
15F
100
AcDbEntity
  8
_0-0_
  6
CONTINUOUS
 62
     0
100
AcDbLine
 10
4618.546617508
 20
3927.501037598
 11
4570.563707352
 21
3927.501037598
  0
LINE
  5
160
100
AcDbEntity
  8
_0-0_
  6
CONTINUOUS
 62
     0
100
AcDbLine
 10
6731.956529617
 20
2843.1121521
 11
6704.604478836
 21
2782.934814453
  0
LINE
  5
161
100
AcDbEntity
  8
_0-0_
  6
CONTINUOUS
 62
     0
100
AcDbLine
 10
6078.063463211
 20
2805.130157471
 11
6129.91087532
 21
2805.130157471
  0
LINE
  5
162
100
AcDbEntity
  8
_0-0_
  6
CONTINUOUS
 62
     0
100
AcDbLine
 10
2417.451005936
 20
2874.888397217
 11
2110.88328743
 21
2874.888397217
  0
LINE
  5
163
100
AcDbEntity
  8
_0-0_
  6
CONTINUOUS
 62
     0
100
AcDbLine
 10
2109.570928574
 20
3024.866577148
 11
2109.570928574
 21
3185.629516602
  0
LINE
  5
164
100
AcDbEntity
  8
_0-0_
  6
CONTINUOUS
 62
     0
100
AcDbLine
 10
2110.88328743
 20
2993.826538086
 11
2110.88328743
 21
2874.888397217
  0
LINE
  5
165
100
AcDbEntity
  8
_0-0_
  6
CONTINUOUS
 62
     0
100
AcDbLine
 10
2110.88328743
 20
2874.888397217
 11
2143.627771378
 21
2810.025756836
  0
LINE
  5
166
100
AcDbEntity
  8
_0-0_
  6
CONTINUOUS
 62
     0
100
AcDbLine
 10
2146.978105545
 20
2993.826538086
 11
2146.978105545
 21
2874.888397217
  0
LINE
  5
167
100
AcDbEntity
  8
_0-0_
  6
CONTINUOUS
 62
     0
100
AcDbLine
 10
2165.263906479
 20
3185.629516602
 11
2165.263906479
 21
3004.892028809
  0
LINE
  5
168
100
AcDbEntity
  8
_0-0_
  6
CONTINUOUS
 62
     0
100
AcDbLine
 10
2110.88328743
 20
2954.159423828
 11
2146.978105545
 21
2954.159423828
  0
LINE
  5
169
100
AcDbEntity
  8
_0-0_
  6
CONTINUOUS
 62
     0
100
AcDbLine
 10
2248.682512283
 20
3170.649475098
 11
2293.264375687
 21
3170.649475098
  0
LINE
  5
16A
100
AcDbEntity
  8
_0-0_
  6
CONTINUOUS
 62
     0
100
AcDbLine
 10
2359.42436409
 20
3072.956542969
 11
2301.850069046
 21
3165.88873291
  0
LINE
  5
16B
100
AcDbEntity
  8
_0-0_
  6
CONTINUOUS
 62
     0
100
AcDbLine
 10
2350.839128494
 20
3057.74395752
 11
2306.256807327
 21
3057.74395752
  0
LINE
  5
16C
100
AcDbEntity
  8
_0-0_
  6
CONTINUOUS
 62
     0
100
AcDbLine
 10
2297.671113968
 20
3062.504699707
 11
2240.096818924
 21
3155.436889648
  0
LINE
  5
16D
100
AcDbEntity
  8
_0-0_
  6
CONTINUOUS
 62
     0
100
AcDbLine
 10
2142.896741867
 20
2811.472045898
 11
2346.79117012
 21
2811.472045898
  0
LINE
  5
16E
100
AcDbEntity
  8
_0-0_
  6
CONTINUOUS
 62
     0
100
AcDbLine
 10
2142.896741867
 20
2745.358581543
 11
2142.896741867
 21
2811.472045898
  0
LINE
  5
16F
100
AcDbEntity
  8
_0-0_
  6
CONTINUOUS
 62
     0
100
AcDbLine
 10
2152.97187233
 20
2735.371917725
 11
2432.392961502
 21
2735.371917725
  0
LINE
  5
170
100
AcDbEntity
  8
_0-0_
  6
CONTINUOUS
 62
     0
100
AcDbLine
 10
2129.721189499
 20
3004.892028809
 11
2472.684984207
 21
3004.892028809
  0
LINE
  5
171
100
AcDbEntity
  8
_0-0_
  6
CONTINUOUS
 62
     0
100
AcDbLine
 10
2464.591386795
 20
2993.826538086
 11
2110.88328743
 21
2993.826538086
  0
LINE
  5
172
100
AcDbEntity
  8
_0-0_
  6
CONTINUOUS
 62
     0
100
AcDbLine
 10
3181.501573563
 20
2957.900756836
 11
3263.706041336
 21
2710.005615234
  0
LINE
  5
173
100
AcDbEntity
  8
_0-0_
  6
CONTINUOUS
 62
     0
100
AcDbLine
 10
2961.359910965
 20
3115.871276855
 11
2699.223741531
 21
3115.871276855
  0
LINE
  5
174
100
AcDbEntity
  8
_0-0_
  6
CONTINUOUS
 62
     0
100
AcDbLine
 10
3231.39525032
 20
3438.54888916
 11
2742.278245926
 21
3385.489074707
  0
LINE
  5
175
100
AcDbEntity
  8
_0-0_
  6
CONTINUOUS
 62
     0
100
AcDbLine
 10
3413.142320633
 20
3466.93145752
 11
3791.542711258
 21
3812.945129395
  0
LINE
  5
176
100
AcDbEntity
  8
_0-0_
  6
CONTINUOUS
 62
     0
100
AcDbLine
 10
3342.734239578
 20
3426.045715332
 11
3181.047472
 21
3364.39239502
  0
LINE
  5
177
100
AcDbEntity
  8
_0-0_
  6
CONTINUOUS
 62
     0
100
AcDbLine
 10
4420.543931961
 20
3895.792907715
 11
4023.155992508
 21
3895.792907715
  0
LINE
  5
178
100
AcDbEntity
  8
_0-0_
  6
CONTINUOUS
 62
     0
100
AcDbLine
 10
4468.527574539
 20
3927.501037598
 11
3948.03978157
 21
3927.501037598
  0
LINE
  5
179
100
AcDbEntity
  8
_0-0_
  6
CONTINUOUS
 62
     0
100
AcDbLine
 10
2377.492265701
 20
3274.90826416
 11
3356.078355789
 21
3336.338867188
  0
LINE
  5
17A
100
AcDbEntity
  8
_0-0_
  6
CONTINUOUS
 62
     0
100
AcDbLine
 10
3356.078355789
 20
3336.338867188
 11
3863.613023758
 21
3336.338867188
  0
LINE
  5
17B
100
AcDbEntity
  8
_0-0_
  6
CONTINUOUS
 62
     0
100
AcDbLine
 10
4387.270738602
 20
3851.400939941
 11
4079.837022781
 21
3851.400939941
  0
LINE
  5
17C
100
AcDbEntity
  8
_0-0_
  6
CONTINUOUS
 62
     0
100
AcDbLine
 10
4407.421617508
 20
3831.42755127
 11
4407.421617508
 21
3475.727966309
  0
LINE
  5
17D
100
AcDbEntity
  8
_0-0_
  6
CONTINUOUS
 62
     0
100
AcDbLine
 10
2961.359910965
 20
3135.845825195
 11
2699.223741531
 21
3135.845825195
  0
LINE
  5
17E
100
AcDbEntity
  8
_0-0_
  6
CONTINUOUS
 62
     0
100
AcDbLine
 10
3190.868883133
 20
2989.038574219
 11
4528.978258133
 21
2989.038574219
  0
LINE
  5
17F
100
AcDbEntity
  8
_0-0_
  6
CONTINUOUS
 62
     0
100
AcDbLine
 10
4339.635240555
 20
3405.872009277
 11
2577.666582108
 21
3337.971984863
  0
LINE
  5
180
100
AcDbEntity
  8
_0-0_
  6
CONTINUOUS
 62
     0
100
AcDbLine
 10
3257.082017899
 20
2729.980194092
 11
4528.978258133
 21
2729.980194092
  0
LINE
  5
181
100
AcDbEntity
  8
_0-0_
  6
CONTINUOUS
 62
     0
100
AcDbLine
 10
3200.644395828
 20
2964.137451172
 11
3278.293199539
 21
2729.980194092
  0
LINE
  5
182
100
AcDbEntity
  8
_0-0_
  6
CONTINUOUS
 62
     0
100
AcDbLine
 10
3485.700059891
 20
3489.908752441
 11
3471.64915657
 21
3401.277038574
  0
LINE
  5
183
100
AcDbEntity
  8
_0-0_
  6
CONTINUOUS
 62
     0
100
AcDbLine
 10
4387.270738602
 20
3831.42755127
 11
4079.837022781
 21
3831.42755127
  0
LINE
  5
184
100
AcDbEntity
  8
_0-0_
  6
CONTINUOUS
 62
     0
100
AcDbLine
 10
4387.270738602
 20
3831.42755127
 11
4387.270738602
 21
3475.727966309
  0
LINE
  5
185
100
AcDbEntity
  8
_0-0_
  6
CONTINUOUS
 62
     0
100
AcDbLine
 10
4254.28172493
 20
3278.53326416
 11
4254.28172493
 21
3298.830749512
  0
LINE
  5
186
100
AcDbEntity
  8
_0-0_
  6
CONTINUOUS
 62
     0
100
AcDbLine
 10
4387.270738602
 20
3258.558654785
 11
4274.431383133
 21
3258.558654785
  0
LINE
  5
187
100
AcDbEntity
  8
_0-0_
  6
CONTINUOUS
 62
     0
100
AcDbLine
 10
4387.270738602
 20
3318.804077148
 11
4274.431383133
 21
3318.804077148
  0
LINE
  5
188
100
AcDbEntity
  8
_0-0_
  6
CONTINUOUS
 62
     0
100
AcDbLine
 10
4407.421617508
 20
3298.830749512
 11
4407.421617508
 21
3278.53326416
  0
LINE
  5
189
100
AcDbEntity
  8
_0-0_
  6
CONTINUOUS
 62
     0
100
AcDbLine
 10
4254.28172493
 20
3287.09588623
 11
4407.421617508
 21
3287.09588623
  0
LINE
  5
18A
100
AcDbEntity
  8
_0-0_
  6
CONTINUOUS
 62
     0
100
AcDbLine
 10
2578.117998123
 20
3394.698791504
 11
2577.666582108
 21
3337.971984863
  0
LINE
  5
18B
100
AcDbEntity
  8
_0-0_
  6
CONTINUOUS
 62
     0
100
AcDbLine
 10
2623.413866043
 20
3526.237854004
 11
2643.885972977
 21
3526.237854004
  0
LINE
  5
18C
100
AcDbEntity
  8
_0-0_
  6
CONTINUOUS
 62
     0
100
AcDbLine
 10
2664.036241531
 20
3419.713684082
 11
2664.036241531
 21
3506.264465332
  0
LINE
  5
18D
100
AcDbEntity
  8
_0-0_
  6
CONTINUOUS
 62
     0
100
AcDbLine
 10
2540.593767166
 20
3418.231628418
 11
2577.740037918
 21
3497.36895752
  0
LINE
  5
18E
100
AcDbEntity
  8
_0-0_
  6
CONTINUOUS
 62
     0
100
AcDbLine
 10
2552.913316727
 20
3396.993835449
 11
2631.045518875
 21
3389.878662109
  0
LINE
  5
18F
100
AcDbEntity
  8
_0-0_
  6
CONTINUOUS
 62
     0
100
AcDbLine
 10
2543.168535233
 20
3401.77557373
 11
2508.728471756
 21
3334.95324707
  0
LINE
  5
190
100
AcDbEntity
  8
_0-0_
  6
CONTINUOUS
 62
     0
100
AcDbLine
 10
2742.278245926
 20
3385.489074707
 11
2578.028001785
 21
3383.377197266
  0
LINE
  5
191
100
AcDbEntity
  8
_0-0_
  6
CONTINUOUS
 62
     0
100
AcDbLine
 10
2532.530931473
 20
3381.135375977
 11
2248.037630081
 21
3304.702453613
  0
LINE
  5
192
100
AcDbEntity
  8
_0-0_
  6
CONTINUOUS
 62
     0
100
AcDbLine
 10
2742.278245926
 20
3385.489074707
 11
2577.907670975
 21
3368.284606934
  0
LINE
  5
193
100
AcDbEntity
  8
_0-0_
  6
CONTINUOUS
 62
     0
100
AcDbLine
 10
2522.08741951
 20
3360.872558594
 11
2248.037630081
 21
3304.702453613
  0
LINE
  5
194
100
AcDbEntity
  8
_0-0_
  6
CONTINUOUS
 62
     0
100
AcDbLine
 10
4618.546617508
 20
3457.499084473
 11
4618.546617508
 21
3927.501037598
  0
LINE
  5
195
100
AcDbEntity
  8
_0-0_
  6
CONTINUOUS
 62
     0
100
AcDbLine
 10
6800.429185867
 20
3457.499084473
 11
4528.978258133
 21
3457.499084473
  0
LINE
  5
196
100
AcDbEntity
  8
_0-0_
  6
CONTINUOUS
 62
     0
100
AcDbLine
 10
4694.145982742
 20
3392.334533691
 11
4570.563707352
 21
3392.334533691
  0
LINE
  5
197
100
AcDbEntity
  8
_0-0_
  6
CONTINUOUS
 62
     0
100
AcDbLine
 10
5525.846178055
 20
3392.334533691
 11
5189.009752274
 21
3392.334533691
  0
LINE
  5
198
100
AcDbEntity
  8
_0-0_
  6
CONTINUOUS
 62
     0
100
AcDbLine
 10
5948.334459305
 20
3392.334533691
 11
5594.259263992
 21
3392.334533691
  0
LINE
  5
199
100
AcDbEntity
  8
_0-0_
  6
CONTINUOUS
 62
     0
100
AcDbLine
 10
6393.775865555
 20
3392.334533691
 11
6016.747301102
 21
3392.334533691
  0
LINE
  5
19A
100
AcDbEntity
  8
_0-0_
  6
CONTINUOUS
 62
     0
100
AcDbLine
 10
5120.596666336
 20
3392.334533691
 11
4762.55906868
 21
3392.334533691
  0
LINE
  5
19B
100
AcDbEntity
  8
_0-0_
  6
CONTINUOUS
 62
     0
100
AcDbLine
 10
4694.145982742
 20
3437.524475098
 11
4694.145982742
 21
3362.374511719
  0
LINE
  5
19C
100
AcDbEntity
  8
_0-0_
  6
CONTINUOUS
 62
     0
100
AcDbLine
 10
4762.55906868
 20
3437.524475098
 11
4762.55906868
 21
3362.374511719
  0
LINE
  5
19D
100
AcDbEntity
  8
_0-0_
  6
CONTINUOUS
 62
     0
100
AcDbLine
 10
5120.596666336
 20
3437.524475098
 11
5120.596666336
 21
3362.374511719
  0
LINE
  5
19E
100
AcDbEntity
  8
_0-0_
  6
CONTINUOUS
 62
     0
100
AcDbLine
 10
5189.009752274
 20
3437.524475098
 11
5189.009752274
 21
3362.374511719
  0
LINE
  5
19F
100
AcDbEntity
  8
_0-0_
  6
CONTINUOUS
 62
     0
100
AcDbLine
 10
5525.846178055
 20
3437.524475098
 11
5525.846178055
 21
3362.374511719
  0
LINE
  5
1A0
100
AcDbEntity
  8
_0-0_
  6
CONTINUOUS
 62
     0
100
AcDbLine
 10
5594.259263992
 20
3437.524475098
 11
5594.259263992
 21
3362.374511719
  0
LINE
  5
1A1
100
AcDbEntity
  8
_0-0_
  6
CONTINUOUS
 62
     0
100
AcDbLine
 10
5948.334459305
 20
3437.524475098
 11
5948.334459305
 21
3362.374511719
  0
LINE
  5
1A2
100
AcDbEntity
  8
_0-0_
  6
CONTINUOUS
 62
     0
100
AcDbLine
 10
6016.747301102
 20
3437.524475098
 11
6016.747301102
 21
3362.374511719
  0
LINE
  5
1A3
100
AcDbEntity
  8
_0-0_
  6
CONTINUOUS
 62
     0
100
AcDbLine
 10
6393.775865555
 20
3437.524475098
 11
6393.775865555
 21
3362.374511719
  0
LINE
  5
1A4
100
AcDbEntity
  8
_0-0_
  6
CONTINUOUS
 62
     0
100
AcDbLine
 10
6477.35203743
 20
3437.524475098
 11
6477.35203743
 21
3362.374511719
  0
LINE
  5
1A5
100
AcDbEntity
  8
_0-0_
  6
CONTINUOUS
 62
     0
100
AcDbLine
 10
6704.604478836
 20
2782.934814453
 11
6121.663560867
 21
2782.934814453
  0
LINE
  5
1A6
100
AcDbEntity
  8
_0-0_
  6
CONTINUOUS
 62
     0
100
AcDbLine
 10
5347.355455399
 20
2909.230529785
 11
5259.582994461
 21
2882.723571777
  0
LINE
  5
1A7
100
AcDbEntity
  8
_0-0_
  6
CONTINUOUS
 62
     0
100
AcDbLine
 10
5299.917955399
 20
2757.568511963
 11
5223.818346024
 21
2757.568511963
  0
LINE
  5
1A8
100
AcDbEntity
  8
_0-0_
  6
CONTINUOUS
 62
     0
100
AcDbLine
 10
6009.485582352
 20
2954.159423828
 11
5933.259996414
 21
2954.159423828
  0
LINE
  5
1A9
100
AcDbEntity
  8
_0-0_
  6
CONTINUOUS
 62
     0
100
AcDbLine
 10
6056.836900711
 20
2869.588226318
 11
5989.277086258
 21
2856.97744751
  0
LINE
  5
1AA
100
AcDbEntity
  8
_0-0_
  6
CONTINUOUS
 62
     0
100
AcDbLine
 10
3331.694444656
 20
2646.589294434
 11
3162.666734695
 21
2719.284606934
  0
LINE
  5
1AB
100
AcDbEntity
  8
_0-0_
  6
CONTINUOUS
 62
     0
100
AcDbLine
 10
3231.111314774
 20
2808.301086426
 11
3154.007310867
 21
2808.301086426
  0
LINE
  5
1AC
100
AcDbEntity
  8
_0-0_
  6
CONTINUOUS
 62
     0
100
AcDbLine
 10
4528.978258133
 20
3052.499450684
 11
3149.205553055
 21
3052.499450684
  0
LINE
  5
1AD
100
AcDbEntity
  8
_0-0_
  6
CONTINUOUS
 62
     0
100
AcDbLine
 10
4480.995347977
 20
2858.301269531
 11
4480.995347977
 21
3835.871643066
  0
LINE
  5
1AE
100
AcDbEntity
  8
_0-0_
  6
CONTINUOUS
 62
     0
100
AcDbLine
 10
4430.995347977
 20
2808.301086426
 11
3415.771348953
 21
2808.301086426
  0
LINE
  5
1AF
100
AcDbEntity
  8
_0-0_
  6
CONTINUOUS
 62
     0
100
AcDbLine
 10
4528.978258133
 20
2740.005218506
 11
4528.978258133
 21
3867.579772949
  0
LINE
  5
1B0
100
AcDbEntity
  8
_0-0_
  6
CONTINUOUS
 62
     0
100
AcDbLine
 10
4498.978502274
 20
2710.005615234
 11
3263.706041336
 21
2710.005615234
  0
LINE
  5
1B1
100
AcDbEntity
  8
_0-0_
  6
CONTINUOUS
 62
     0
100
AcDbLine
 10
4570.563707352
 20
2740.005218506
 11
4570.563707352
 21
3927.501037598
  0
LINE
  5
1B2
100
AcDbEntity
  8
_0-0_
  6
CONTINUOUS
 62
     0
100
AcDbLine
 10
4600.56321907
 20
2710.005615234
 11
5220.490953445
 21
2710.005615234
  0
LINE
  5
1B3
100
AcDbEntity
  8
_0-0_
  6
CONTINUOUS
 62
     0
100
AcDbLine
 10
2289.009950638
 20
3185.629516602
 11
2109.570928574
 21
3185.629516602
  0
LINE
  5
1B4
100
AcDbEntity
  8
_0-0_
  6
CONTINUOUS
 62
     0
100
AcDbLine
 10
2315.713655472
 20
3169.30090332
 11
2399.882463455
 21
3004.892028809
  0
LINE
  5
1B5
100
AcDbEntity
  8
_0-0_
  6
CONTINUOUS
 62
     0
100
AcDbLine
 10
6711.506334305
 20
2925.622192383
 11
6800.429185867
 21
2925.622192383
  0
LINE
  5
1B6
100
AcDbEntity
  8
_0-0_
  6
CONTINUOUS
 62
     0
100
AcDbLine
 10
6681.506334305
 20
2885.863586426
 11
6681.506334305
 21
2895.621337891
  0
LINE
  5
1B7
100
AcDbEntity
  8
_0-0_
  6
CONTINUOUS
 62
     0
100
AcDbLine
 10
6711.506334305
 20
2855.863983154
 11
6800.429185867
 21
2855.863983154
  0
LINE
  5
1B8
100
AcDbEntity
  8
_0-0_
  6
CONTINUOUS
 62
     0
100
AcDbLine
 10
6681.506334305
 20
2887.572143555
 11
6260.399400711
 21
2887.572143555
  0
LINE
  5
1B9
100
AcDbEntity
  8
_0-0_
  6
CONTINUOUS
 62
     0
100
AcDbLine
 10
6720.049791336
 20
2855.863983154
 11
6731.956529617
 21
2843.1121521
  0
LINE
  5
1BA
100
AcDbEntity
  8
_0-0_
  6
CONTINUOUS
 62
     0
100
AcDbLine
 10
6668.550279617
 20
3052.499450684
 11
6668.550279617
 21
2985.867614746
  0
LINE
  5
1BB
100
AcDbEntity
  8
_0-0_
  6
CONTINUOUS
 62
     0
100
AcDbLine
 10
6800.429185867
 20
3362.374511719
 11
4570.563707352
 21
3362.374511719
  0
LINE
  5
1BC
100
AcDbEntity
  8
_0-0_
  6
CONTINUOUS
 62
     0
100
AcDbLine
 10
6800.429185867
 20
3392.334533691
 11
6477.35203743
 21
3392.334533691
  0
LINE
  5
1BD
100
AcDbEntity
  8
_0-0_
  6
CONTINUOUS
 62
     0
100
AcDbLine
 10
6800.429185867
 20
3437.524475098
 11
4570.563707352
 21
3437.524475098
  0
LINE
  5
1BE
100
AcDbEntity
  8
_0-0_
  6
CONTINUOUS
 62
     0
100
AcDbLine
 10
6775.81297493
 20
3437.524475098
 11
6800.429185867
 21
3392.334533691
  0
LINE
  5
1BF
100
AcDbEntity
  8
_0-0_
  6
CONTINUOUS
 62
     0
100
AcDbLine
 10
6800.429185867
 20
2855.863983154
 11
6800.429185867
 21
3392.334533691
  0
LINE
  5
1C0
100
AcDbEntity
  8
_0-0_
  6
CONTINUOUS
 62
     0
100
AcDbLine
 10
6800.429185867
 20
3437.524475098
 11
6800.429185867
 21
3457.499084473
  0
LINE
  5
1C1
100
AcDbEntity
  8
_0-0_
  6
CONTINUOUS
 62
     0
100
AcDbLine
 10
3456.644029617
 20
3506.709899902
 11
3485.700059891
 21
3489.908752441
  0
LINE
  5
1C2
100
AcDbEntity
  8
_0-0_
  6
CONTINUOUS
 62
     0
100
AcDbLine
 10
5935.288316727
 20
3052.499450684
 11
6668.550279617
 21
3052.499450684
  0
LINE
  5
1C3
100
AcDbEntity
  8
_0-0_
  6
CONTINUOUS
 62
     0
100
AcDbLine
 10
6003.337388992
 20
2985.867614746
 11
6668.550279617
 21
2985.867614746
  0
LINE
  5
1C4
100
AcDbEntity
  8
_0-0_
  6
CONTINUOUS
 62
     0
100
AcDbLine
 10
5375.358629227
 20
3052.499450684
 11
4570.563707352
 21
3052.499450684
  0
LINE
  5
1C5
100
AcDbEntity
  8
_0-0_
  6
CONTINUOUS
 62
     0
100
AcDbLine
 10
4570.563707352
 20
2989.038574219
 11
5309.947984695
 21
2989.038574219
  0
LINE
  5
1C6
100
AcDbEntity
  8
_0-0_
  6
CONTINUOUS
 62
     0
100
AcDbLine
 10
6260.399400711
 20
2887.567215857
 11
6235.402878549
 21
2885.399548369
  0
LINE
  5
1C7
100
AcDbEntity
  8
_0-0_
  6
CONTINUOUS
 62
     0
100
AcDbLine
 10
6235.402878549
 20
2885.399548369
 11
6211.165863064
 21
2878.962409383
  0
LINE
  5
1C8
100
AcDbEntity
  8
_0-0_
  6
CONTINUOUS
 62
     0
100
AcDbLine
 10
6211.165863064
 20
2878.962409383
 11
6188.424783707
 21
2868.451388111
  0
LINE
  5
1C9
100
AcDbEntity
  8
_0-0_
  6
CONTINUOUS
 62
     0
100
AcDbLine
 10
6188.424783707
 20
2868.451388111
 11
6167.870616666
 21
2854.185856616
  0
LINE
  5
1CA
100
AcDbEntity
  8
_0-0_
  6
CONTINUOUS
 62
     0
100
AcDbLine
 10
6167.870616666
 20
2854.185856616
 11
6150.127889907
 21
2836.599265853
  0
LINE
  5
1CB
100
AcDbEntity
  8
_0-0_
  6
CONTINUOUS
 62
     0
100
AcDbLine
 10
6150.127889907
 20
2836.599265853
 11
6135.735707204
 21
2816.225975482
  0
LINE
  5
1CC
100
AcDbEntity
  8
_0-0_
  6
CONTINUOUS
 62
     0
100
AcDbLine
 10
6135.735707204
 20
2816.225975482
 11
6125.131367745
 21
2793.685017623
  0
LINE
  5
1CD
100
AcDbEntity
  8
_0-0_
  6
CONTINUOUS
 62
     0
100
AcDbLine
 10
6125.131367745
 20
2793.685017623
 11
6118.637079019
 21
2769.661287875
  0
LINE
  5
1CE
100
AcDbEntity
  8
_0-0_
  6
CONTINUOUS
 62
     0
100
AcDbLine
 10
6118.637079019
 20
2769.661287875
 11
6116.450166702
 21
2744.884735107
  0
LINE
  5
1CF
100
AcDbEntity
  8
_0-0_
  6
CONTINUOUS
 62
     0
100
AcDbLine
 10
2250.419407877
 20
3305.29492239
 11
2214.522549618
 21
3291.864419924
  0
LINE
  5
1D0
100
AcDbEntity
  8
_0-0_
  6
CONTINUOUS
 62
     0
100
AcDbLine
 10
2214.522549618
 20
3291.864419924
 11
2181.523932985
 21
3272.459387079
  0
LINE
  5
1D1
100
AcDbEntity
  8
_0-0_
  6
CONTINUOUS
 62
     0
100
AcDbLine
 10
2181.523932985
 20
3272.459387079
 11
2152.426204248
 21
3247.669435959
  0
LINE
  5
1D2
100
AcDbEntity
  8
_0-0_
  6
CONTINUOUS
 62
     0
100
AcDbLine
 10
2152.426204248
 20
3247.669435959
 11
2128.113483169
 21
3218.247796684
  0
LINE
  5
1D3
100
AcDbEntity
  8
_0-0_
  6
CONTINUOUS
 62
     0
100
AcDbLine
 10
2128.113483169
 20
3218.247796684
 11
2109.570834543
 21
3185.626746147
  0
LINE
  5
1D4
100
AcDbEntity
  8
_0-0_
  6
CONTINUOUS
 62
     0
100
AcDbLine
 10
2109.570814133
 20
3024.866577148
 11
2109.876943612
 21
3021.398293055
  0
LINE
  5
1D5
100
AcDbEntity
  8
_0-0_
  6
CONTINUOUS
 62
     0
100
AcDbLine
 10
2109.876943612
 20
3021.398293055
 11
2110.786030461
 21
3018.035391019
  0
LINE
  5
1D6
100
AcDbEntity
  8
_0-0_
  6
CONTINUOUS
 62
     0
100
AcDbLine
 10
2110.786030461
 20
3018.035391019
 11
2112.270452536
 21
3014.880051117
  0
LINE
  5
1D7
100
AcDbEntity
  8
_0-0_
  6
CONTINUOUS
 62
     0
100
AcDbLine
 10
2112.270452536
 20
3014.880051117
 11
2114.285106423
 21
3012.028146755
  0
LINE
  5
1D8
100
AcDbEntity
  8
_0-0_
  6
CONTINUOUS
 62
     0
100
AcDbLine
 10
2114.285106423
 20
3012.028146755
 11
2116.768777883
 21
3009.566331603
  0
LINE
  5
1D9
100
AcDbEntity
  8
_0-0_
  6
CONTINUOUS
 62
     0
100
AcDbLine
 10
2116.768777883
 20
3009.566331603
 11
2119.646001816
 21
3007.569406671
  0
LINE
  5
1DA
100
AcDbEntity
  8
_0-0_
  6
CONTINUOUS
 62
     0
100
AcDbLine
 10
2119.646001816
 20
3007.569406671
 11
2122.829355228
 21
3006.09804751
  0
LINE
  5
1DB
100
AcDbEntity
  8
_0-0_
  6
CONTINUOUS
 62
     0
100
AcDbLine
 10
2122.829355228
 20
3006.09804751
 11
2126.222113537
 21
3005.196960625
  0
LINE
  5
1DC
100
AcDbEntity
  8
_0-0_
  6
CONTINUOUS
 62
     0
100
AcDbLine
 10
2126.222113537
 20
3005.196960625
 11
2129.721189499
 21
3004.893525085
  0
LINE
  5
1DD
100
AcDbEntity
  8
_0-0_
  6
CONTINUOUS
 62
     0
100
AcDbLine
 10
2301.849847002
 20
3165.888867054
 11
2300.803857136
 21
3167.287203016
  0
LINE
  5
1DE
100
AcDbEntity
  8
_0-0_
  6
CONTINUOUS
 62
     0
100
AcDbLine
 10
2300.803857136
 20
3167.287203016
 11
2299.528783942
 21
3168.48425926
  0
LINE
  5
1DF
100
AcDbEntity
  8
_0-0_
  6
CONTINUOUS
 62
     0
100
AcDbLine
 10
2299.528783942
 20
3168.48425926
 11
2298.063369873
 21
3169.443663837
  0
LINE
  5
1E0
100
AcDbEntity
  8
_0-0_
  6
CONTINUOUS
 62
     0
100
AcDbLine
 10
2298.063369873
 20
3169.443663837
 11
2296.452140794
 21
3170.136265726
  0
LINE
  5
1E1
100
AcDbEntity
  8
_0-0_
  6
CONTINUOUS
 62
     0
100
AcDbLine
 10
2296.452140794
 20
3170.136265726
 11
2294.744053085
 21
3170.541020567
  0
LINE
  5
1E2
100
AcDbEntity
  8
_0-0_
  6
CONTINUOUS
 62
     0
100
AcDbLine
 10
2294.744053085
 20
3170.541020567
 11
2293.264375687
 21
3170.649306793
  0
LINE
  5
1E3
100
AcDbEntity
  8
_0-0_
  6
CONTINUOUS
 62
     0
100
AcDbLine
 10
2248.682512283
 20
3170.649306793
 11
2246.932974303
 21
3170.497589023
  0
LINE
  5
1E4
100
AcDbEntity
  8
_0-0_
  6
CONTINUOUS
 62
     0
100
AcDbLine
 10
2246.932974303
 20
3170.497589023
 11
2245.236595148
 21
3170.047045581
  0
LINE
  5
1E5
100
AcDbEntity
  8
_0-0_
  6
CONTINUOUS
 62
     0
100
AcDbLine
 10
2245.236595148
 20
3170.047045581
 11
2243.644918442
 21
3169.311366001
  0
LINE
  5
1E6
100
AcDbEntity
  8
_0-0_
  6
CONTINUOUS
 62
     0
100
AcDbLine
 10
2243.644918442
 20
3169.311366001
 11
2242.206306475
 21
3168.312903534
  0
LINE
  5
1E7
100
AcDbEntity
  8
_0-0_
  6
CONTINUOUS
 62
     0
100
AcDbLine
 10
2242.206306475
 20
3168.312903534
 11
2240.964470745
 21
3167.081995959
  0
LINE
  5
1E8
100
AcDbEntity
  8
_0-0_
  6
CONTINUOUS
 62
     0
100
AcDbLine
 10
2240.964470745
 20
3167.081995959
 11
2239.957143802
 21
3165.656043777
  0
LINE
  5
1E9
100
AcDbEntity
  8
_0-0_
  6
CONTINUOUS
 62
     0
100
AcDbLine
 10
2239.957143802
 20
3165.656043777
 11
2239.214932764
 21
3164.078373826
  0
LINE
  5
1EA
100
AcDbEntity
  8
_0-0_
  6
CONTINUOUS
 62
     0
100
AcDbLine
 10
2239.214932764
 20
3164.078373826
 11
2238.76038934
 21
3162.396922808
  0
LINE
  5
1EB
100
AcDbEntity
  8
_0-0_
  6
CONTINUOUS
 62
     0
100
AcDbLine
 10
2238.76038934
 20
3162.396922808
 11
2238.6073246
 21
3160.662780762
  0
LINE
  5
1EC
100
AcDbEntity
  8
_0-0_
  6
CONTINUOUS
 62
     0
100
AcDbLine
 10
2238.6073246
 20
3160.662780762
 11
2238.76038934
 21
3158.928638715
  0
LINE
  5
1ED
100
AcDbEntity
  8
_0-0_
  6
CONTINUOUS
 62
     0
100
AcDbLine
 10
2238.76038934
 20
3158.928638715
 11
2239.214932764
 21
3157.247187697
  0
LINE
  5
1EE
100
AcDbEntity
  8
_0-0_
  6
CONTINUOUS
 62
     0
100
AcDbLine
 10
2239.214932764
 20
3157.247187697
 11
2239.957143802
 21
3155.669517746
  0
LINE
  5
1EF
100
AcDbEntity
  8
_0-0_
  6
CONTINUOUS
 62
     0
100
AcDbLine
 10
2239.957143802
 20
3155.669517746
 11
2240.09698059
 21
3155.436791922
  0
LINE
  5
1F0
100
AcDbEntity
  8
_0-0_
  6
CONTINUOUS
 62
     0
100
AcDbLine
 10
2297.671336012
 20
3062.504504528
 11
2298.717325878
 21
3061.106168566
  0
LINE
  5
1F1
100
AcDbEntity
  8
_0-0_
  6
CONTINUOUS
 62
     0
100
AcDbLine
 10
2298.717325878
 20
3061.106168566
 11
2299.992399072
 21
3059.909112322
  0
LINE
  5
1F2
100
AcDbEntity
  8
_0-0_
  6
CONTINUOUS
 62
     0
100
AcDbLine
 10
2299.992399072
 20
3059.909112322
 11
2301.457813141
 21
3058.949707745
  0
LINE
  5
1F3
100
AcDbEntity
  8
_0-0_
  6
CONTINUOUS
 62
     0
100
AcDbLine
 10
2301.457813141
 20
3058.949707745
 11
2303.06904222
 21
3058.257105856
  0
LINE
  5
1F4
100
AcDbEntity
  8
_0-0_
  6
CONTINUOUS
 62
     0
100
AcDbLine
 10
2303.06904222
 20
3058.257105856
 11
2304.777129929
 21
3057.852351015
  0
LINE
  5
1F5
100
AcDbEntity
  8
_0-0_
  6
CONTINUOUS
 62
     0
100
AcDbLine
 10
2304.777129929
 20
3057.852351015
 11
2306.256807327
 21
3057.744064789
  0
LINE
  5
1F6
100
AcDbEntity
  8
_0-0_
  6
CONTINUOUS
 62
     0
100
AcDbLine
 10
2350.839128494
 20
3057.744064789
 11
2352.588666475
 21
3057.895782559
  0
LINE
  5
1F7
100
AcDbEntity
  8
_0-0_
  6
CONTINUOUS
 62
     0
100
AcDbLine
 10
2352.588666475
 20
3057.895782559
 11
2354.28504563
 21
3058.346326001
  0
LINE
  5
1F8
100
AcDbEntity
  8
_0-0_
  6
CONTINUOUS
 62
     0
100
AcDbLine
 10
2354.28504563
 20
3058.346326001
 11
2355.876722336
 21
3059.082005581
  0
LINE
  5
1F9
100
AcDbEntity
  8
_0-0_
  6
CONTINUOUS
 62
     0
100
AcDbLine
 10
2355.876722336
 20
3059.082005581
 11
2357.315334302
 21
3060.080468048
  0
LINE
  5
1FA
100
AcDbEntity
  8
_0-0_
  6
CONTINUOUS
 62
     0
100
AcDbLine
 10
2357.315334302
 20
3060.080468048
 11
2358.557170032
 21
3061.311375623
  0
LINE
  5
1FB
100
AcDbEntity
  8
_0-0_
  6
CONTINUOUS
 62
     0
100
AcDbLine
 10
2358.557170032
 20
3061.311375623
 11
2359.564496976
 21
3062.737327805
  0
LINE
  5
1FC
100
AcDbEntity
  8
_0-0_
  6
CONTINUOUS
 62
     0
100
AcDbLine
 10
2359.564496976
 20
3062.737327805
 11
2360.306708013
 21
3064.314997756
  0
LINE
  5
1FD
100
AcDbEntity
  8
_0-0_
  6
CONTINUOUS
 62
     0
100
AcDbLine
 10
2360.306708013
 20
3064.314997756
 11
2360.761251438
 21
3065.996448774
  0
LINE
  5
1FE
100
AcDbEntity
  8
_0-0_
  6
CONTINUOUS
 62
     0
100
AcDbLine
 10
2360.761251438
 20
3065.996448774
 11
2360.914316177
 21
3067.73059082
  0
LINE
  5
1FF
100
AcDbEntity
  8
_0-0_
  6
CONTINUOUS
 62
     0
100
AcDbLine
 10
2360.914316177
 20
3067.73059082
 11
2360.761251438
 21
3069.464732867
  0
LINE
  5
200
100
AcDbEntity
  8
_0-0_
  6
CONTINUOUS
 62
     0
100
AcDbLine
 10
2360.761251438
 20
3069.464732867
 11
2360.306708013
 21
3071.146183885
  0
LINE
  5
201
100
AcDbEntity
  8
_0-0_
  6
CONTINUOUS
 62
     0
100
AcDbLine
 10
2360.306708013
 20
3071.146183885
 11
2359.564496976
 21
3072.723853836
  0
LINE
  5
202
100
AcDbEntity
  8
_0-0_
  6
CONTINUOUS
 62
     0
100
AcDbLine
 10
2359.564496976
 20
3072.723853836
 11
2359.424660187
 21
3072.95657966
  0
LINE
  5
203
100
AcDbEntity
  8
_0-0_
  6
CONTINUOUS
 62
     0
100
AcDbLine
 10
2142.896684647
 20
2745.358581543
 11
2143.049749386
 21
2743.624439496
  0
LINE
  5
204
100
AcDbEntity
  8
_0-0_
  6
CONTINUOUS
 62
     0
100
AcDbLine
 10
2143.049749386
 20
2743.624439496
 11
2143.504292811
 21
2741.942988478
  0
LINE
  5
205
100
AcDbEntity
  8
_0-0_
  6
CONTINUOUS
 62
     0
100
AcDbLine
 10
2143.504292811
 20
2741.942988478
 11
2144.246503848
 21
2740.365318527
  0
LINE
  5
206
100
AcDbEntity
  8
_0-0_
  6
CONTINUOUS
 62
     0
100
AcDbLine
 10
2144.246503848
 20
2740.365318527
 11
2145.253830792
 21
2738.939366346
  0
LINE
  5
207
100
AcDbEntity
  8
_0-0_
  6
CONTINUOUS
 62
     0
100
AcDbLine
 10
2145.253830792
 20
2738.939366346
 11
2146.495666522
 21
2737.70845877
  0
LINE
  5
208
100
AcDbEntity
  8
_0-0_
  6
CONTINUOUS
 62
     0
100
AcDbLine
 10
2146.495666522
 20
2737.70845877
 11
2147.934278488
 21
2736.709996304
  0
LINE
  5
209
100
AcDbEntity
  8
_0-0_
  6
CONTINUOUS
 62
     0
100
AcDbLine
 10
2147.934278488
 20
2736.709996304
 11
2149.525955194
 21
2735.974316724
  0
LINE
  5
20A
100
AcDbEntity
  8
_0-0_
  6
CONTINUOUS
 62
     0
100
AcDbLine
 10
2149.525955194
 20
2735.974316724
 11
2151.222334349
 21
2735.523773281
  0
LINE
  5
20B
100
AcDbEntity
  8
_0-0_
  6
CONTINUOUS
 62
     0
100
AcDbLine
 10
2151.222334349
 20
2735.523773281
 11
2152.97187233
 21
2735.372055511
  0
LINE
  5
20C
100
AcDbEntity
  8
_0-0_
  6
CONTINUOUS
 62
     0
100
AcDbLine
 10
2464.591307657
 20
2993.820236825
 11
2440.142895305
 21
2951.071134344
  0
LINE
  5
20D
100
AcDbEntity
  8
_0-0_
  6
CONTINUOUS
 62
     0
100
AcDbLine
 10
2440.142895305
 20
2951.071134344
 11
2423.555118053
 21
2904.76342425
  0
LINE
  5
20E
100
AcDbEntity
  8
_0-0_
  6
CONTINUOUS
 62
     0
100
AcDbLine
 10
2423.555118053
 20
2904.76342425
 11
2415.331987117
 21
2856.304142882
  0
LINE
  5
20F
100
AcDbEntity
  8
_0-0_
  6
CONTINUOUS
 62
     0
100
AcDbLine
 10
2415.331987117
 20
2856.304142882
 11
2415.72335817
 21
2807.165700982
  0
LINE
  5
210
100
AcDbEntity
  8
_0-0_
  6
CONTINUOUS
 62
     0
100
AcDbLine
 10
2415.72335817
 20
2807.165700982
 11
2424.717339602
 21
2758.841145243
  0
LINE
  5
211
100
AcDbEntity
  8
_0-0_
  6
CONTINUOUS
 62
     0
100
AcDbLine
 10
2424.717339602
 20
2758.841145243
 11
2432.39160853
 21
2735.374287702
  0
LINE
  5
212
100
AcDbEntity
  8
_0-0_
  6
CONTINUOUS
 62
     0
100
AcDbLine
 10
2699.223751132
 20
3115.860915791
 11
2648.219798945
 21
3110.671962044
  0
LINE
  5
213
100
AcDbEntity
  8
_0-0_
  6
CONTINUOUS
 62
     0
100
AcDbLine
 10
2648.219798945
 20
3110.671962044
 11
2598.899763418
 21
3096.783036154
  0
LINE
  5
214
100
AcDbEntity
  8
_0-0_
  6
CONTINUOUS
 62
     0
100
AcDbLine
 10
2598.899763418
 20
3096.783036154
 11
2552.762208872
 21
3074.616146106
  0
LINE
  5
215
100
AcDbEntity
  8
_0-0_
  6
CONTINUOUS
 62
     0
100
AcDbLine
 10
2552.762208872
 20
3074.616146106
 11
2511.209001556
 21
3044.844821638
  0
LINE
  5
216
100
AcDbEntity
  8
_0-0_
  6
CONTINUOUS
 62
     0
100
AcDbLine
 10
2511.209001556
 20
3044.844821638
 11
2475.502714646
 21
3008.373649379
  0
LINE
  5
217
100
AcDbEntity
  8
_0-0_
  6
CONTINUOUS
 62
     0
100
AcDbLine
 10
2475.502714646
 20
3008.373649379
 11
2472.683786566
 21
3004.886090433
  0
LINE
  5
218
100
AcDbEntity
  8
_0-0_
  6
CONTINUOUS
 62
     0
100
AcDbLine
 10
3181.501688131
 20
2957.898154155
 11
3165.591919545
 21
2994.699324027
  0
LINE
  5
219
100
AcDbEntity
  8
_0-0_
  6
CONTINUOUS
 62
     0
100
AcDbLine
 10
3165.591919545
 20
2994.699324027
 11
3143.476664724
 21
3028.203010894
  0
LINE
  5
21A
100
AcDbEntity
  8
_0-0_
  6
CONTINUOUS
 62
     0
100
AcDbLine
 10
3143.476664724
 20
3028.203010894
 11
3115.827884496
 21
3057.391222186
  0
LINE
  5
21B
100
AcDbEntity
  8
_0-0_
  6
CONTINUOUS
 62
     0
100
AcDbLine
 10
3115.827884496
 20
3057.391222186
 11
3083.485673057
 21
3081.377088872
  0
LINE
  5
21C
100
AcDbEntity
  8
_0-0_
  6
CONTINUOUS
 62
     0
100
AcDbLine
 10
3083.485673057
 20
3081.377088872
 11
3047.432732135
 21
3099.431812531
  0
LINE
  5
21D
100
AcDbEntity
  8
_0-0_
  6
CONTINUOUS
 62
     0
100
AcDbLine
 10
3047.432732135
 20
3099.431812531
 11
3008.764512097
 21
3111.00680952
  0
LINE
  5
21E
100
AcDbEntity
  8
_0-0_
  6
CONTINUOUS
 62
     0
100
AcDbLine
 10
3008.764512097
 20
3111.00680952
 11
2968.655927241
 21
3115.750379412
  0
LINE
  5
21F
100
AcDbEntity
  8
_0-0_
  6
CONTINUOUS
 62
     0
100
AcDbLine
 10
2968.655927241
 20
3115.750379412
 11
2961.359910965
 21
3115.864254712
  0
LINE
  5
220
100
AcDbEntity
  8
_0-0_
  6
CONTINUOUS
 62
     0
100
AcDbLine
 10
4023.155992508
 20
3895.780256958
 11
3960.172625198
 21
3890.318417237
  0
LINE
  5
221
100
AcDbEntity
  8
_0-0_
  6
CONTINUOUS
 62
     0
100
AcDbLine
 10
3960.172625198
 20
3890.318417237
 11
3899.102975633
 21
3874.098853311
  0
LINE
  5
222
100
AcDbEntity
  8
_0-0_
  6
CONTINUOUS
 62
     0
100
AcDbLine
 10
3899.102975633
 20
3874.098853311
 11
3841.802614212
 21
3847.614388422
  0
LINE
  5
223
100
AcDbEntity
  8
_0-0_
  6
CONTINUOUS
 62
     0
100
AcDbLine
 10
3841.802614212
 20
3847.614388422
 11
3791.542553413
 21
3812.93515703
  0
LINE
  5
224
100
AcDbEntity
  8
_0-0_
  6
CONTINUOUS
 62
     0
100
AcDbLine
 10
3342.734160488
 20
3426.05331241
 11
3382.182352646
 21
3445.158945323
  0
LINE
  5
225
100
AcDbEntity
  8
_0-0_
  6
CONTINUOUS
 62
     0
100
AcDbLine
 10
3382.182352646
 20
3445.158945323
 11
3413.142401542
 21
3466.937834719
  0
LINE
  5
226
100
AcDbEntity
  8
_0-0_
  6
CONTINUOUS
 62
     0
100
AcDbLine
 10
4480.99505806
 20
3835.871643066
 11
4480.076669621
 21
3846.276495346
  0
LINE
  5
227
100
AcDbEntity
  8
_0-0_
  6
CONTINUOUS
 62
     0
100
AcDbLine
 10
4480.076669621
 20
3846.276495346
 11
4477.349409074
 21
3856.365201454
  0
LINE
  5
228
100
AcDbEntity
  8
_0-0_
  6
CONTINUOUS
 62
     0
100
AcDbLine
 10
4477.349409074
 20
3856.365201454
 11
4472.89614285
 21
3865.831221161
  0
LINE
  5
229
100
AcDbEntity
  8
_0-0_
  6
CONTINUOUS
 62
     0
100
AcDbLine
 10
4472.89614285
 20
3865.831221161
 11
4466.852181189
 21
3874.386934248
  0
LINE
  5
22A
100
AcDbEntity
  8
_0-0_
  6
CONTINUOUS
 62
     0
100
AcDbLine
 10
4466.852181189
 20
3874.386934248
 11
4459.401166809
 21
3881.772379701
  0
LINE
  5
22B
100
AcDbEntity
  8
_0-0_
  6
CONTINUOUS
 62
     0
100
AcDbLine
 10
4459.401166809
 20
3881.772379701
 11
4450.76949501
 21
3887.763154499
  0
LINE
  5
22C
100
AcDbEntity
  8
_0-0_
  6
CONTINUOUS
 62
     0
100
AcDbLine
 10
4450.76949501
 20
3887.763154499
 11
4441.219434774
 21
3892.177231981
  0
LINE
  5
22D
100
AcDbEntity
  8
_0-0_
  6
CONTINUOUS
 62
     0
100
AcDbLine
 10
4441.219434774
 20
3892.177231981
 11
4431.041159846
 21
3894.880492635
  0
LINE
  5
22E
100
AcDbEntity
  8
_0-0_
  6
CONTINUOUS
 62
     0
100
AcDbLine
 10
4431.041159846
 20
3894.880492635
 11
4420.543931961
 21
3895.790799255
  0
LINE
  5
22F
100
AcDbEntity
  8
_0-0_
  6
CONTINUOUS
 62
     0
100
AcDbLine
 10
4528.978700638
 20
3867.579772949
 11
4528.060312199
 21
3877.984625229
  0
LINE
  5
230
100
AcDbEntity
  8
_0-0_
  6
CONTINUOUS
 62
     0
100
AcDbLine
 10
4528.060312199
 20
3877.984625229
 11
4525.333051652
 21
3888.073331337
  0
LINE
  5
231
100
AcDbEntity
  8
_0-0_
  6
CONTINUOUS
 62
     0
100
AcDbLine
 10
4525.333051652
 20
3888.073331337
 11
4520.879785428
 21
3897.539351044
  0
LINE
  5
232
100
AcDbEntity
  8
_0-0_
  6
CONTINUOUS
 62
     0
100
AcDbLine
 10
4520.879785428
 20
3897.539351044
 11
4514.835823767
 21
3906.09506413
  0
LINE
  5
233
100
AcDbEntity
  8
_0-0_
  6
CONTINUOUS
 62
     0
100
AcDbLine
 10
4514.835823767
 20
3906.09506413
 11
4507.384809387
 21
3913.480509584
  0
LINE
  5
234
100
AcDbEntity
  8
_0-0_
  6
CONTINUOUS
 62
     0
100
AcDbLine
 10
4507.384809387
 20
3913.480509584
 11
4498.753137589
 21
3919.471284382
  0
LINE
  5
235
100
AcDbEntity
  8
_0-0_
  6
CONTINUOUS
 62
     0
100
AcDbLine
 10
4498.753137589
 20
3919.471284382
 11
4489.203077352
 21
3923.885361864
  0
LINE
  5
236
100
AcDbEntity
  8
_0-0_
  6
CONTINUOUS
 62
     0
100
AcDbLine
 10
4489.203077352
 20
3923.885361864
 11
4479.024802424
 21
3926.588622518
  0
LINE
  5
237
100
AcDbEntity
  8
_0-0_
  6
CONTINUOUS
 62
     0
100
AcDbLine
 10
4479.024802424
 20
3926.588622518
 11
4468.527574539
 21
3927.498929138
  0
LINE
  5
238
100
AcDbEntity
  8
_0-0_
  6
CONTINUOUS
 62
     0
100
AcDbLine
 10
3948.039748359
 20
3927.486999222
 11
3872.614035725
 21
3917.632246125
  0
LINE
  5
239
100
AcDbEntity
  8
_0-0_
  6
CONTINUOUS
 62
     0
100
AcDbLine
 10
3872.614035725
 20
3917.632246125
 11
3800.060661848
 21
3894.944929653
  0
LINE
  5
23A
100
AcDbEntity
  8
_0-0_
  6
CONTINUOUS
 62
     0
100
AcDbLine
 10
3800.060661848
 20
3894.944929653
 11
3767.537678585
 21
3880.00665544
  0
LINE
  5
23B
100
AcDbEntity
  8
_0-0_
  6
CONTINUOUS
 62
     0
100
AcDbLine
 10
3231.402564408
 20
3438.572368663
 11
3314.719858332
 21
3421.786223431
  0
LINE
  5
23C
100
AcDbEntity
  8
_0-0_
  6
CONTINUOUS
 62
     0
100
AcDbLine
 10
3314.719858332
 20
3421.786223431
 11
3328.060892022
 21
3420.465865982
  0
LINE
  5
23D
100
AcDbEntity
  8
_0-0_
  6
CONTINUOUS
 62
     0
100
AcDbLine
 10
4079.8369268
 20
3851.376636209
 11
3953.575697181
 21
3823.071856655
  0
LINE
  5
23E
100
AcDbEntity
  8
_0-0_
  6
CONTINUOUS
 62
     0
100
AcDbLine
 10
3953.575697181
 20
3823.071856655
 11
3895.595910333
 21
3802.010538868
  0
LINE
  5
23F
100
AcDbEntity
  8
_0-0_
  6
CONTINUOUS
 62
     0
100
AcDbLine
 10
4339.635498187
 20
3405.875061294
 11
4351.831391208
 21
3407.407893523
  0
LINE
  5
240
100
AcDbEntity
  8
_0-0_
  6
CONTINUOUS
 62
     0
100
AcDbLine
 10
4351.831391208
 20
3407.407893523
 11
4363.573464565
 21
3411.016596592
  0
LINE
  5
241
100
AcDbEntity
  8
_0-0_
  6
CONTINUOUS
 62
     0
100
AcDbLine
 10
4363.573464565
 20
3411.016596592
 11
4374.504941301
 21
3416.591521884
  0
LINE
  5
242
100
AcDbEntity
  8
_0-0_
  6
CONTINUOUS
 62
     0
100
AcDbLine
 10
4374.504941301
 20
3416.591521884
 11
4384.293674025
 21
3423.963278116
  0
LINE
  5
243
100
AcDbEntity
  8
_0-0_
  6
CONTINUOUS
 62
     0
100
AcDbLine
 10
4384.293674025
 20
3423.963278116
 11
4392.642237048
 21
3432.907878204
  0
LINE
  5
244
100
AcDbEntity
  8
_0-0_
  6
CONTINUOUS
 62
     0
100
AcDbLine
 10
4392.642237048
 20
3432.907878204
 11
4399.296963506
 21
3443.153545001
  0
LINE
  5
245
100
AcDbEntity
  8
_0-0_
  6
CONTINUOUS
 62
     0
100
AcDbLine
 10
4399.296963506
 20
3443.153545001
 11
4404.055652904
 21
3454.388969106
  0
LINE
  5
246
100
AcDbEntity
  8
_0-0_
  6
CONTINUOUS
 62
     0
100
AcDbLine
 10
4404.055652904
 20
3454.388969106
 11
4406.773714873
 21
3466.272767843
  0
LINE
  5
247
100
AcDbEntity
  8
_0-0_
  6
CONTINUOUS
 62
     0
100
AcDbLine
 10
4406.773714873
 20
3466.272767843
 11
4407.421808243
 21
3475.727966309
  0
LINE
  5
248
100
AcDbEntity
  8
_0-0_
  6
CONTINUOUS
 62
     0
100
AcDbLine
 10
4407.421113968
 20
3831.42755127
 11
4407.114984488
 21
3834.895835363
  0
LINE
  5
249
100
AcDbEntity
  8
_0-0_
  6
CONTINUOUS
 62
     0
100
AcDbLine
 10
4407.114984488
 20
3834.895835363
 11
4406.205897639
 21
3838.258737399
  0
LINE
  5
24A
100
AcDbEntity
  8
_0-0_
  6
CONTINUOUS
 62
     0
100
AcDbLine
 10
4406.205897639
 20
3838.258737399
 11
4404.721475565
 21
3841.414077301
  0
LINE
  5
24B
100
AcDbEntity
  8
_0-0_
  6
CONTINUOUS
 62
     0
100
AcDbLine
 10
4404.721475565
 20
3841.414077301
 11
4402.706821678
 21
3844.265981663
  0
LINE
  5
24C
100
AcDbEntity
  8
_0-0_
  6
CONTINUOUS
 62
     0
100
AcDbLine
 10
4402.706821678
 20
3844.265981663
 11
4400.223150218
 21
3846.727796815
  0
LINE
  5
24D
100
AcDbEntity
  8
_0-0_
  6
CONTINUOUS
 62
     0
100
AcDbLine
 10
4400.223150218
 20
3846.727796815
 11
4397.345926285
 21
3848.724721747
  0
LINE
  5
24E
100
AcDbEntity
  8
_0-0_
  6
CONTINUOUS
 62
     0
100
AcDbLine
 10
4397.345926285
 20
3848.724721747
 11
4394.162572873
 21
3850.196080908
  0
LINE
  5
24F
100
AcDbEntity
  8
_0-0_
  6
CONTINUOUS
 62
     0
100
AcDbLine
 10
4394.162572873
 20
3850.196080908
 11
4390.769814563
 21
3851.097167792
  0
LINE
  5
250
100
AcDbEntity
  8
_0-0_
  6
CONTINUOUS
 62
     0
100
AcDbLine
 10
4390.769814563
 20
3851.097167792
 11
4387.270738602
 21
3851.400603333
  0
LINE
  5
251
100
AcDbEntity
  8
_0-0_
  6
CONTINUOUS
 62
     0
100
AcDbLine
 10
3827.055588645
 20
3838.711348158
 11
3805.072230064
 21
3858.537248734
  0
LINE
  5
252
100
AcDbEntity
  8
_0-0_
  6
CONTINUOUS
 62
     0
100
AcDbLine
 10
3805.072230064
 20
3858.537248734
 11
3779.94955158
 21
3874.278172032
  0
LINE
  5
253
100
AcDbEntity
  8
_0-0_
  6
CONTINUOUS
 62
     0
100
AcDbLine
 10
3779.94955158
 20
3874.278172032
 11
3767.537597867
 21
3880.014099182
  0
LINE
  5
254
100
AcDbEntity
  8
_0-0_
  6
CONTINUOUS
 62
     0
100
AcDbLine
 10
3200.644449473
 20
2964.135024918
 11
3183.351222885
 21
3004.136296201
  0
LINE
  5
255
100
AcDbEntity
  8
_0-0_
  6
CONTINUOUS
 62
     0
100
AcDbLine
 10
3183.351222885
 20
3004.136296201
 11
3159.312902618
 21
3040.553346856
  0
LINE
  5
256
100
AcDbEntity
  8
_0-0_
  6
CONTINUOUS
 62
     0
100
AcDbLine
 10
3159.312902618
 20
3040.553346856
 11
3129.259880868
 21
3072.279663227
  0
LINE
  5
257
100
AcDbEntity
  8
_0-0_
  6
CONTINUOUS
 62
     0
100
AcDbLine
 10
3129.259880868
 20
3072.279663227
 11
3094.105303494
 21
3098.351257246
  0
LINE
  5
258
100
AcDbEntity
  8
_0-0_
  6
CONTINUOUS
 62
     0
100
AcDbLine
 10
3094.105303494
 20
3098.351257246
 11
3054.917324541
 21
3117.975956719
  0
LINE
  5
259
100
AcDbEntity
  8
_0-0_
  6
CONTINUOUS
 62
     0
100
AcDbLine
 10
3054.917324541
 20
3117.975956719
 11
3012.886650919
 21
3130.557475086
  0
LINE
  5
25A
100
AcDbEntity
  8
_0-0_
  6
CONTINUOUS
 62
     0
100
AcDbLine
 10
3012.886650919
 20
3130.557475086
 11
2969.290363377
 21
3135.713529276
  0
LINE
  5
25B
100
AcDbEntity
  8
_0-0_
  6
CONTINUOUS
 62
     0
100
AcDbLine
 10
2969.290363377
 20
3135.713529276
 11
2961.359910965
 21
3135.837306775
  0
LINE
  5
25C
100
AcDbEntity
  8
_0-0_
  6
CONTINUOUS
 62
     0
100
AcDbLine
 10
2698.921207271
 20
3135.831671093
 11
2644.423177814
 21
3130.287242827
  0
LINE
  5
25D
100
AcDbEntity
  8
_0-0_
  6
CONTINUOUS
 62
     0
100
AcDbLine
 10
2644.423177814
 20
3130.287242827
 11
2591.724423427
 21
3115.446842037
  0
LINE
  5
25E
100
AcDbEntity
  8
_0-0_
  6
CONTINUOUS
 62
     0
100
AcDbLine
 10
2591.724423427
 20
3115.446842037
 11
2542.426169096
 21
3091.761386793
  0
LINE
  5
25F
100
AcDbEntity
  8
_0-0_
  6
CONTINUOUS
 62
     0
100
AcDbLine
 10
2542.426169096
 20
3091.761386793
 11
2498.026317333
 21
3059.950547666
  0
LINE
  5
260
100
AcDbEntity
  8
_0-0_
  6
CONTINUOUS
 62
     0
100
AcDbLine
 10
2498.026317333
 20
3059.950547666
 11
2459.873935167
 21
3020.980880906
  0
LINE
  5
261
100
AcDbEntity
  8
_0-0_
  6
CONTINUOUS
 62
     0
100
AcDbLine
 10
2459.873935167
 20
3020.980880906
 11
2447.513441358
 21
3004.886118703
  0
LINE
  5
262
100
AcDbEntity
  8
_0-0_
  6
CONTINUOUS
 62
     0
100
AcDbLine
 10
3369.569370235
 20
3368.480365614
 11
3334.750681867
 21
3279.43239145
  0
LINE
  5
263
100
AcDbEntity
  8
_0-0_
  6
CONTINUOUS
 62
     0
100
AcDbLine
 10
3334.750681867
 20
3279.43239145
 11
3316.0612687
 21
3185.744260896
  0
LINE
  5
264
100
AcDbEntity
  8
_0-0_
  6
CONTINUOUS
 62
     0
100
AcDbLine
 10
3316.0612687
 20
3185.744260896
 11
3314.068999096
 21
3090.262640388
  0
LINE
  5
265
100
AcDbEntity
  8
_0-0_
  6
CONTINUOUS
 62
     0
100
AcDbLine
 10
3314.068999096
 20
3090.262640388
 11
3328.834407159
 21
2995.888690651
  0
LINE
  5
266
100
AcDbEntity
  8
_0-0_
  6
CONTINUOUS
 62
     0
100
AcDbLine
 10
3328.834407159
 20
2995.888690651
 11
3359.908853437
 21
2905.489916392
  0
LINE
  5
267
100
AcDbEntity
  8
_0-0_
  6
CONTINUOUS
 62
     0
100
AcDbLine
 10
3359.908853437
 20
2905.489916392
 11
3406.348156605
 21
2821.813038623
  0
LINE
  5
268
100
AcDbEntity
  8
_0-0_
  6
CONTINUOUS
 62
     0
100
AcDbLine
 10
3406.348156605
 20
2821.813038623
 11
3415.770894723
 21
2808.311366997
  0
LINE
  5
269
100
AcDbEntity
  8
_0-0_
  6
CONTINUOUS
 62
     0
100
AcDbLine
 10
3471.649136424
 20
3401.278478809
 11
3474.391323966
 21
3394.872867686
  0
LINE
  5
26A
100
AcDbEntity
  8
_0-0_
  6
CONTINUOUS
 62
     0
100
AcDbLine
 10
3474.391323966
 20
3394.872867686
 11
3478.214049559
 21
3389.03655771
  0
LINE
  5
26B
100
AcDbEntity
  8
_0-0_
  6
CONTINUOUS
 62
     0
100
AcDbLine
 10
3478.214049559
 20
3389.03655771
 11
3483.001161619
 21
3383.946882209
  0
LINE
  5
26C
100
AcDbEntity
  8
_0-0_
  6
CONTINUOUS
 62
     0
100
AcDbLine
 10
3483.001161619
 20
3383.946882209
 11
3488.607206171
 21
3379.758488395
  0
LINE
  5
26D
100
AcDbEntity
  8
_0-0_
  6
CONTINUOUS
 62
     0
100
AcDbLine
 10
3488.607206171
 20
3379.758488395
 11
3494.861846385
 21
3376.598638496
  0
LINE
  5
26E
100
AcDbEntity
  8
_0-0_
  6
CONTINUOUS
 62
     0
100
AcDbLine
 10
3494.861846385
 20
3376.598638496
 11
3501.575038186
 21
3374.563342952
  0
LINE
  5
26F
100
AcDbEntity
  8
_0-0_
  6
CONTINUOUS
 62
     0
100
AcDbLine
 10
3501.575038186
 20
3374.563342952
 11
3508.542804636
 21
3373.714443188
  0
LINE
  5
270
100
AcDbEntity
  8
_0-0_
  6
CONTINUOUS
 62
     0
100
AcDbLine
 10
3508.542804636
 20
3373.714443188
 11
3515.553433678
 21
3374.077732593
  0
LINE
  5
271
100
AcDbEntity
  8
_0-0_
  6
CONTINUOUS
 62
     0
100
AcDbLine
 10
3515.553433678
 20
3374.077732593
 11
3518.911522954
 21
3374.689966141
  0
LINE
  5
272
100
AcDbEntity
  8
_0-0_
  6
CONTINUOUS
 62
     0
100
AcDbLine
 10
4082.552130668
 20
3831.585722562
 11
3959.716818161
 21
3804.048952547
  0
LINE
  5
273
100
AcDbEntity
  8
_0-0_
  6
CONTINUOUS
 62
     0
100
AcDbLine
 10
3959.716818161
 20
3804.048952547
 11
3903.310229551
 21
3783.559103366
  0
LINE
  5
274
100
AcDbEntity
  8
_0-0_
  6
CONTINUOUS
 62
     0
100
AcDbLine
 10
3582.699425558
 20
3521.197789022
 11
3565.696171479
 21
3499.29733109
  0
LINE
  5
275
100
AcDbEntity
  8
_0-0_
  6
CONTINUOUS
 62
     0
100
AcDbLine
 10
3565.696171479
 20
3499.29733109
 11
3552.787972939
 21
3474.802988978
  0
LINE
  5
276
100
AcDbEntity
  8
_0-0_
  6
CONTINUOUS
 62
     0
100
AcDbLine
 10
3552.787972939
 20
3474.802988978
 11
3544.367039019
 21
3448.459010877
  0
LINE
  5
277
100
AcDbEntity
  8
_0-0_
  6
CONTINUOUS
 62
     0
100
AcDbLine
 10
3544.367039019
 20
3448.459010877
 11
3540.689235535
 21
3421.065845231
  0
LINE
  5
278
100
AcDbEntity
  8
_0-0_
  6
CONTINUOUS
 62
     0
100
AcDbLine
 10
3540.689235535
 20
3421.065845231
 11
3541.866310685
 21
3393.455819517
  0
LINE
  5
279
100
AcDbEntity
  8
_0-0_
  6
CONTINUOUS
 62
     0
100
AcDbLine
 10
3541.866310685
 20
3393.455819517
 11
3545.356600059
 21
3375.264475584
  0
LINE
  5
27A
100
AcDbEntity
  8
_0-0_
  6
CONTINUOUS
 62
     0
100
AcDbLine
 10
3597.536748856
 20
3507.68356798
 11
3582.675636832
 21
3488.542222611
  0
LINE
  5
27B
100
AcDbEntity
  8
_0-0_
  6
CONTINUOUS
 62
     0
100
AcDbLine
 10
3582.675636832
 20
3488.542222611
 11
3571.393667884
 21
3467.133781591
  0
LINE
  5
27C
100
AcDbEntity
  8
_0-0_
  6
CONTINUOUS
 62
     0
100
AcDbLine
 10
3571.393667884
 20
3467.133781591
 11
3564.03363893
 21
3444.108729568
  0
LINE
  5
27D
100
AcDbEntity
  8
_0-0_
  6
CONTINUOUS
 62
     0
100
AcDbLine
 10
3564.03363893
 20
3444.108729568
 11
3560.819180725
 21
3420.166671097
  0
LINE
  5
27E
100
AcDbEntity
  8
_0-0_
  6
CONTINUOUS
 62
     0
100
AcDbLine
 10
3560.819180725
 20
3420.166671097
 11
3561.847962956
 21
3396.035073508
  0
LINE
  5
27F
100
AcDbEntity
  8
_0-0_
  6
CONTINUOUS
 62
     0
100
AcDbLine
 10
3561.847962956
 20
3396.035073508
 11
3565.999354395
 21
3376.059998682
  0
LINE
  5
280
100
AcDbEntity
  8
_0-0_
  6
CONTINUOUS
 62
     0
100
AcDbLine
 10
4322.740952927
 20
3405.223679415
 11
4337.696283734
 21
3411.024585229
  0
LINE
  5
281
100
AcDbEntity
  8
_0-0_
  6
CONTINUOUS
 62
     0
100
AcDbLine
 10
4337.696283734
 20
3411.024585229
 11
4351.408149653
 21
3419.311474889
  0
LINE
  5
282
100
AcDbEntity
  8
_0-0_
  6
CONTINUOUS
 62
     0
100
AcDbLine
 10
4351.408149653
 20
3419.311474889
 11
4363.459922575
 21
3429.832555448
  0
LINE
  5
283
100
AcDbEntity
  8
_0-0_
  6
CONTINUOUS
 62
     0
100
AcDbLine
 10
4363.459922575
 20
3429.832555448
 11
4373.485415478
 21
3442.268149195
  0
LINE
  5
284
100
AcDbEntity
  8
_0-0_
  6
CONTINUOUS
 62
     0
100
AcDbLine
 10
4373.485415478
 20
3442.268149195
 11
4381.180008835
 21
3456.240406909
  0
LINE
  5
285
100
AcDbEntity
  8
_0-0_
  6
CONTINUOUS
 62
     0
100
AcDbLine
 10
4381.180008835
 20
3456.240406909
 11
4386.309906319
 21
3471.324788608
  0
LINE
  5
286
100
AcDbEntity
  8
_0-0_
  6
CONTINUOUS
 62
     0
100
AcDbLine
 10
4386.309906319
 20
3471.324788608
 11
4387.271502045
 21
3475.727632727
  0
LINE
  5
287
100
AcDbEntity
  8
_0-0_
  6
CONTINUOUS
 62
     0
100
AcDbLine
 10
4274.431383133
 20
3318.803801575
 11
4270.932307171
 21
3318.500366035
  0
LINE
  5
288
100
AcDbEntity
  8
_0-0_
  6
CONTINUOUS
 62
     0
100
AcDbLine
 10
4270.932307171
 20
3318.500366035
 11
4267.539548862
 21
3317.59927915
  0
LINE
  5
289
100
AcDbEntity
  8
_0-0_
  6
CONTINUOUS
 62
     0
100
AcDbLine
 10
4267.539548862
 20
3317.59927915
 11
4264.35619545
 21
3316.127919989
  0
LINE
  5
28A
100
AcDbEntity
  8
_0-0_
  6
CONTINUOUS
 62
     0
100
AcDbLine
 10
4264.35619545
 20
3316.127919989
 11
4261.478971517
 21
3314.130995057
  0
LINE
  5
28B
100
AcDbEntity
  8
_0-0_
  6
CONTINUOUS
 62
     0
100
AcDbLine
 10
4261.478971517
 20
3314.130995057
 11
4258.995300057
 21
3311.669179905
  0
LINE
  5
28C
100
AcDbEntity
  8
_0-0_
  6
CONTINUOUS
 62
     0
100
AcDbLine
 10
4258.995300057
 20
3311.669179905
 11
4256.98064617
 21
3308.817275543
  0
LINE
  5
28D
100
AcDbEntity
  8
_0-0_
  6
CONTINUOUS
 62
     0
100
AcDbLine
 10
4256.98064617
 20
3308.817275543
 11
4255.496224095
 21
3305.661935641
  0
LINE
  5
28E
100
AcDbEntity
  8
_0-0_
  6
CONTINUOUS
 62
     0
100
AcDbLine
 10
4255.496224095
 20
3305.661935641
 11
4254.587137246
 21
3302.299033605
  0
LINE
  5
28F
100
AcDbEntity
  8
_0-0_
  6
CONTINUOUS
 62
     0
100
AcDbLine
 10
4254.587137246
 20
3302.299033605
 11
4254.281007767
 21
3298.830749512
  0
LINE
  5
290
100
AcDbEntity
  8
_0-0_
  6
CONTINUOUS
 62
     0
100
AcDbLine
 10
4254.281007767
 20
3278.53326416
 11
4254.587137246
 21
3275.064980067
  0
LINE
  5
291
100
AcDbEntity
  8
_0-0_
  6
CONTINUOUS
 62
     0
100
AcDbLine
 10
4254.587137246
 20
3275.064980067
 11
4255.496224095
 21
3271.702078031
  0
LINE
  5
292
100
AcDbEntity
  8
_0-0_
  6
CONTINUOUS
 62
     0
100
AcDbLine
 10
4255.496224095
 20
3271.702078031
 11
4256.98064617
 21
3268.546738129
  0
LINE
  5
293
100
AcDbEntity
  8
_0-0_
  6
CONTINUOUS
 62
     0
100
AcDbLine
 10
4256.98064617
 20
3268.546738129
 11
4258.995300057
 21
3265.694833766
  0
LINE
  5
294
100
AcDbEntity
  8
_0-0_
  6
CONTINUOUS
 62
     0
100
AcDbLine
 10
4258.995300057
 20
3265.694833766
 11
4261.478971517
 21
3263.233018615
  0
LINE
  5
295
100
AcDbEntity
  8
_0-0_
  6
CONTINUOUS
 62
     0
100
AcDbLine
 10
4261.478971517
 20
3263.233018615
 11
4264.35619545
 21
3261.236093682
  0
LINE
  5
296
100
AcDbEntity
  8
_0-0_
  6
CONTINUOUS
 62
     0
100
AcDbLine
 10
4264.35619545
 20
3261.236093682
 11
4267.539548862
 21
3259.764734522
  0
LINE
  5
297
100
AcDbEntity
  8
_0-0_
  6
CONTINUOUS
 62
     0
100
AcDbLine
 10
4267.539548862
 20
3259.764734522
 11
4270.932307171
 21
3258.863647637
  0
LINE
  5
298
100
AcDbEntity
  8
_0-0_
  6
CONTINUOUS
 62
     0
100
AcDbLine
 10
4270.932307171
 20
3258.863647637
 11
4274.431383133
 21
3258.560212097
  0
LINE
  5
299
100
AcDbEntity
  8
_0-0_
  6
CONTINUOUS
 62
     0
100
AcDbLine
 10
4387.270738602
 20
3258.560212097
 11
4390.769814563
 21
3258.863647637
  0
LINE
  5
29A
100
AcDbEntity
  8
_0-0_
  6
CONTINUOUS
 62
     0
100
AcDbLine
 10
4390.769814563
 20
3258.863647637
 11
4394.162572873
 21
3259.764734522
  0
LINE
  5
29B
100
AcDbEntity
  8
_0-0_
  6
CONTINUOUS
 62
     0
100
AcDbLine
 10
4394.162572873
 20
3259.764734522
 11
4397.345926285
 21
3261.236093682
  0
LINE
  5
29C
100
AcDbEntity
  8
_0-0_
  6
CONTINUOUS
 62
     0
100
AcDbLine
 10
4397.345926285
 20
3261.236093682
 11
4400.223150218
 21
3263.233018615
  0
LINE
  5
29D
100
AcDbEntity
  8
_0-0_
  6
CONTINUOUS
 62
     0
100
AcDbLine
 10
4400.223150218
 20
3263.233018615
 11
4402.706821678
 21
3265.694833766
  0
LINE
  5
29E
100
AcDbEntity
  8
_0-0_
  6
CONTINUOUS
 62
     0
100
AcDbLine
 10
4402.706821678
 20
3265.694833766
 11
4404.721475565
 21
3268.546738129
  0
LINE
  5
29F
100
AcDbEntity
  8
_0-0_
  6
CONTINUOUS
 62
     0
100
AcDbLine
 10
4404.721475565
 20
3268.546738129
 11
4406.205897639
 21
3271.702078031
  0
LINE
  5
2A0
100
AcDbEntity
  8
_0-0_
  6
CONTINUOUS
 62
     0
100
AcDbLine
 10
4406.205897639
 20
3271.702078031
 11
4407.114984488
 21
3275.064980067
  0
LINE
  5
2A1
100
AcDbEntity
  8
_0-0_
  6
CONTINUOUS
 62
     0
100
AcDbLine
 10
4407.114984488
 20
3275.064980067
 11
4407.421113968
 21
3278.53326416
  0
LINE
  5
2A2
100
AcDbEntity
  8
_0-0_
  6
CONTINUOUS
 62
     0
100
AcDbLine
 10
4407.421113968
 20
3298.830749512
 11
4407.114984488
 21
3302.299033605
  0
LINE
  5
2A3
100
AcDbEntity
  8
_0-0_
  6
CONTINUOUS
 62
     0
100
AcDbLine
 10
4407.114984488
 20
3302.299033605
 11
4406.205897639
 21
3305.661935641
  0
LINE
  5
2A4
100
AcDbEntity
  8
_0-0_
  6
CONTINUOUS
 62
     0
100
AcDbLine
 10
4406.205897639
 20
3305.661935641
 11
4404.721475565
 21
3308.817275543
  0
LINE
  5
2A5
100
AcDbEntity
  8
_0-0_
  6
CONTINUOUS
 62
     0
100
AcDbLine
 10
4404.721475565
 20
3308.817275543
 11
4402.706821678
 21
3311.669179905
  0
LINE
  5
2A6
100
AcDbEntity
  8
_0-0_
  6
CONTINUOUS
 62
     0
100
AcDbLine
 10
4402.706821678
 20
3311.669179905
 11
4400.223150218
 21
3314.130995057
  0
LINE
  5
2A7
100
AcDbEntity
  8
_0-0_
  6
CONTINUOUS
 62
     0
100
AcDbLine
 10
4400.223150218
 20
3314.130995057
 11
4397.345926285
 21
3316.127919989
  0
LINE
  5
2A8
100
AcDbEntity
  8
_0-0_
  6
CONTINUOUS
 62
     0
100
AcDbLine
 10
4397.345926285
 20
3316.127919989
 11
4394.162572873
 21
3317.59927915
  0
LINE
  5
2A9
100
AcDbEntity
  8
_0-0_
  6
CONTINUOUS
 62
     0
100
AcDbLine
 10
4394.162572873
 20
3317.59927915
 11
4390.769814563
 21
3318.500366035
  0
LINE
  5
2AA
100
AcDbEntity
  8
_0-0_
  6
CONTINUOUS
 62
     0
100
AcDbLine
 10
4390.769814563
 20
3318.500366035
 11
4387.270738602
 21
3318.803801575
  0
LINE
  5
2AB
100
AcDbEntity
  8
_0-0_
  6
CONTINUOUS
 62
     0
100
AcDbLine
 10
2377.492395802
 20
3274.890149135
 11
2279.38279366
 21
3245.748503202
  0
LINE
  5
2AC
100
AcDbEntity
  8
_0-0_
  6
CONTINUOUS
 62
     0
100
AcDbLine
 10
2279.38279366
 20
3245.748503202
 11
2187.869017356
 21
3200.1629524
  0
LINE
  5
2AD
100
AcDbEntity
  8
_0-0_
  6
CONTINUOUS
 62
     0
100
AcDbLine
 10
2187.869017356
 20
3200.1629524
 11
2165.263924609
 21
3185.614418217
  0
LINE
  5
2AE
100
AcDbEntity
  8
_0-0_
  6
CONTINUOUS
 62
     0
100
AcDbLine
 10
2508.728695133
 20
3334.954704666
 11
2518.25061431
 21
3330.189112945
  0
LINE
  5
2AF
100
AcDbEntity
  8
_0-0_
  6
CONTINUOUS
 62
     0
100
AcDbLine
 10
2518.25061431
 20
3330.189112945
 11
2528.46275743
 21
3327.134834701
  0
LINE
  5
2B0
100
AcDbEntity
  8
_0-0_
  6
CONTINUOUS
 62
     0
100
AcDbLine
 10
2528.46275743
 20
3327.134834701
 11
2539.054833691
 21
3325.884672632
  0
LINE
  5
2B1
100
AcDbEntity
  8
_0-0_
  6
CONTINUOUS
 62
     0
100
AcDbLine
 10
2539.054833691
 20
3325.884672632
 11
2549.705008218
 21
3326.476612282
  0
LINE
  5
2B2
100
AcDbEntity
  8
_0-0_
  6
CONTINUOUS
 62
     0
100
AcDbLine
 10
2549.705008218
 20
3326.476612282
 11
2560.089680845
 21
3328.892667862
  0
LINE
  5
2B3
100
AcDbEntity
  8
_0-0_
  6
CONTINUOUS
 62
     0
100
AcDbLine
 10
2560.089680845
 20
3328.892667862
 11
2569.893318549
 21
3333.059428748
  0
LINE
  5
2B4
100
AcDbEntity
  8
_0-0_
  6
CONTINUOUS
 62
     0
100
AcDbLine
 10
2569.893318549
 20
3333.059428748
 11
2577.666718357
 21
3337.973679823
  0
LINE
  5
2B5
100
AcDbEntity
  8
_0-0_
  6
CONTINUOUS
 62
     0
100
AcDbLine
 10
2664.036348343
 20
3506.264465332
 11
2663.730218863
 21
3509.732749425
  0
LINE
  5
2B6
100
AcDbEntity
  8
_0-0_
  6
CONTINUOUS
 62
     0
100
AcDbLine
 10
2663.730218863
 20
3509.732749425
 11
2662.821132014
 21
3513.095651461
  0
LINE
  5
2B7
100
AcDbEntity
  8
_0-0_
  6
CONTINUOUS
 62
     0
100
AcDbLine
 10
2662.821132014
 20
3513.095651461
 11
2661.33670994
 21
3516.250991364
  0
LINE
  5
2B8
100
AcDbEntity
  8
_0-0_
  6
CONTINUOUS
 62
     0
100
AcDbLine
 10
2661.33670994
 20
3516.250991364
 11
2659.322056053
 21
3519.102895726
  0
LINE
  5
2B9
100
AcDbEntity
  8
_0-0_
  6
CONTINUOUS
 62
     0
100
AcDbLine
 10
2659.322056053
 20
3519.102895726
 11
2656.838384593
 21
3521.564710877
  0
LINE
  5
2BA
100
AcDbEntity
  8
_0-0_
  6
CONTINUOUS
 62
     0
100
AcDbLine
 10
2656.838384593
 20
3521.564710877
 11
2653.96116066
 21
3523.56163581
  0
LINE
  5
2BB
100
AcDbEntity
  8
_0-0_
  6
CONTINUOUS
 62
     0
100
AcDbLine
 10
2653.96116066
 20
3523.56163581
 11
2650.777807248
 21
3525.03299497
  0
LINE
  5
2BC
100
AcDbEntity
  8
_0-0_
  6
CONTINUOUS
 62
     0
100
AcDbLine
 10
2650.777807248
 20
3525.03299497
 11
2647.385048938
 21
3525.934081855
  0
LINE
  5
2BD
100
AcDbEntity
  8
_0-0_
  6
CONTINUOUS
 62
     0
100
AcDbLine
 10
2647.385048938
 20
3525.934081855
 11
2643.885972977
 21
3526.237517395
  0
LINE
  5
2BE
100
AcDbEntity
  8
_0-0_
  6
CONTINUOUS
 62
     0
100
AcDbLine
 10
2623.413866043
 20
3526.237130771
 11
2614.666176801
 21
3525.478541978
  0
LINE
  5
2BF
100
AcDbEntity
  8
_0-0_
  6
CONTINUOUS
 62
     0
100
AcDbLine
 10
2614.666176801
 20
3525.478541978
 11
2606.184281671
 21
3523.225824937
  0
LINE
  5
2C0
100
AcDbEntity
  8
_0-0_
  6
CONTINUOUS
 62
     0
100
AcDbLine
 10
2606.184281671
 20
3523.225824937
 11
2598.225898743
 21
3519.547427314
  0
LINE
  5
2C1
100
AcDbEntity
  8
_0-0_
  6
CONTINUOUS
 62
     0
100
AcDbLine
 10
2598.225898743
 20
3519.547427314
 11
2591.032839455
 21
3514.55511536
  0
LINE
  5
2C2
100
AcDbEntity
  8
_0-0_
  6
CONTINUOUS
 62
     0
100
AcDbLine
 10
2591.032839455
 20
3514.55511536
 11
2584.823661275
 21
3508.400577948
  0
LINE
  5
2C3
100
AcDbEntity
  8
_0-0_
  6
CONTINUOUS
 62
     0
100
AcDbLine
 10
2584.823661275
 20
3508.400577948
 11
2579.787026939
 21
3501.270817583
  0
LINE
  5
2C4
100
AcDbEntity
  8
_0-0_
  6
CONTINUOUS
 62
     0
100
AcDbLine
 10
2579.787026939
 20
3501.270817583
 11
2577.739699666
 21
3497.368502863
  0
LINE
  5
2C5
100
AcDbEntity
  8
_0-0_
  6
CONTINUOUS
 62
     0
100
AcDbLine
 10
2631.045641552
 20
3389.879755007
 11
2636.314254474
 21
3389.857032478
  0
LINE
  5
2C6
100
AcDbEntity
  8
_0-0_
  6
CONTINUOUS
 62
     0
100
AcDbLine
 10
2636.314254474
 20
3389.857032478
 11
2641.506806084
 21
3390.741489201
  0
LINE
  5
2C7
100
AcDbEntity
  8
_0-0_
  6
CONTINUOUS
 62
     0
100
AcDbLine
 10
2641.506806084
 20
3390.741489201
 11
2646.465523329
 21
3392.506251404
  0
LINE
  5
2C8
100
AcDbEntity
  8
_0-0_
  6
CONTINUOUS
 62
     0
100
AcDbLine
 10
2646.465523329
 20
3392.506251404
 11
2651.039738093
 21
3395.097697681
  0
LINE
  5
2C9
100
AcDbEntity
  8
_0-0_
  6
CONTINUOUS
 62
     0
100
AcDbLine
 10
2651.039738093
 20
3395.097697681
 11
2655.090465177
 21
3398.437088249
  0
LINE
  5
2CA
100
AcDbEntity
  8
_0-0_
  6
CONTINUOUS
 62
     0
100
AcDbLine
 10
2655.090465177
 20
3398.437088249
 11
2658.494625287
 21
3402.422957415
  0
LINE
  5
2CB
100
AcDbEntity
  8
_0-0_
  6
CONTINUOUS
 62
     0
100
AcDbLine
 10
2658.494625287
 20
3402.422957415
 11
2661.148784741
 21
3406.934196561
  0
LINE
  5
2CC
100
AcDbEntity
  8
_0-0_
  6
CONTINUOUS
 62
     0
100
AcDbLine
 10
2661.148784741
 20
3406.934196561
 11
2662.972298248
 21
3411.833733969
  0
LINE
  5
2CD
100
AcDbEntity
  8
_0-0_
  6
CONTINUOUS
 62
     0
100
AcDbLine
 10
2662.972298248
 20
3411.833733969
 11
2663.909759272
 21
3416.972699673
  0
LINE
  5
2CE
100
AcDbEntity
  8
_0-0_
  6
CONTINUOUS
 62
     0
100
AcDbLine
 10
2663.909759272
 20
3416.972699673
 11
2664.036523819
 21
3419.713684082
  0
LINE
  5
2CF
100
AcDbEntity
  8
_0-0_
  6
CONTINUOUS
 62
     0
100
AcDbLine
 10
2540.593434228
 20
3418.231350543
 11
2539.694501629
 21
3415.776929964
  0
LINE
  5
2D0
100
AcDbEntity
  8
_0-0_
  6
CONTINUOUS
 62
     0
100
AcDbLine
 10
2539.694501629
 20
3415.776929964
 11
2539.239215406
 21
3413.205073203
  0
LINE
  5
2D1
100
AcDbEntity
  8
_0-0_
  6
CONTINUOUS
 62
     0
100
AcDbLine
 10
2539.239215406
 20
3413.205073203
 11
2539.241409199
 21
3410.593924827
  0
LINE
  5
2D2
100
AcDbEntity
  8
_0-0_
  6
CONTINUOUS
 62
     0
100
AcDbLine
 10
2539.241409199
 20
3410.593924827
 11
2539.701016351
 21
3408.022823258
  0
LINE
  5
2D3
100
AcDbEntity
  8
_0-0_
  6
CONTINUOUS
 62
     0
100
AcDbLine
 10
2539.701016351
 20
3408.022823258
 11
2540.604071932
 21
3405.569890116
  0
LINE
  5
2D4
100
AcDbEntity
  8
_0-0_
  6
CONTINUOUS
 62
     0
100
AcDbLine
 10
2540.604071932
 20
3405.569890116
 11
2541.923137055
 21
3403.309656534
  0
LINE
  5
2D5
100
AcDbEntity
  8
_0-0_
  6
CONTINUOUS
 62
     0
100
AcDbLine
 10
2541.923137055
 20
3403.309656534
 11
2543.618132593
 21
3401.310798564
  0
LINE
  5
2D6
100
AcDbEntity
  8
_0-0_
  6
CONTINUOUS
 62
     0
100
AcDbLine
 10
2543.618132593
 20
3401.310798564
 11
2545.637556965
 21
3399.634050495
  0
LINE
  5
2D7
100
AcDbEntity
  8
_0-0_
  6
CONTINUOUS
 62
     0
100
AcDbLine
 10
2545.637556965
 20
3399.634050495
 11
2547.920050983
 21
3398.330359469
  0
LINE
  5
2D8
100
AcDbEntity
  8
_0-0_
  6
CONTINUOUS
 62
     0
100
AcDbLine
 10
2547.920050983
 20
3398.330359469
 11
2550.396262221
 21
3397.439337477
  0
LINE
  5
2D9
100
AcDbEntity
  8
_0-0_
  6
CONTINUOUS
 62
     0
100
AcDbLine
 10
2550.396262221
 20
3397.439337477
 11
2552.913028515
 21
3396.994951878
  0
LINE
  5
2DA
100
AcDbEntity
  8
_0-0_
  6
CONTINUOUS
 62
     0
100
AcDbLine
 10
6078.063880312
 20
2805.126552159
 11
6053.927161548
 21
2876.352454045
  0
LINE
  5
2DB
100
AcDbEntity
  8
_0-0_
  6
CONTINUOUS
 62
     0
100
AcDbLine
 10
6053.927161548
 20
2876.352454045
 11
6017.679078828
 21
2942.341860626
  0
LINE
  5
2DC
100
AcDbEntity
  8
_0-0_
  6
CONTINUOUS
 62
     0
100
AcDbLine
 10
6017.679078828
 20
2942.341860626
 11
5970.421011804
 21
3001.089717175
  0
LINE
  5
2DD
100
AcDbEntity
  8
_0-0_
  6
CONTINUOUS
 62
     0
100
AcDbLine
 10
5970.421011804
 20
3001.089717175
 11
5913.588872927
 21
3050.810999797
  0
LINE
  5
2DE
100
AcDbEntity
  8
_0-0_
  6
CONTINUOUS
 62
     0
100
AcDbLine
 10
5913.588872927
 20
3050.810999797
 11
5848.90947798
 21
3089.994952481
  0
LINE
  5
2DF
100
AcDbEntity
  8
_0-0_
  6
CONTINUOUS
 62
     0
100
AcDbLine
 10
5848.90947798
 20
3089.994952481
 11
5778.348077648
 21
3117.450990652
  0
LINE
  5
2E0
100
AcDbEntity
  8
_0-0_
  6
CONTINUOUS
 62
     0
100
AcDbLine
 10
5778.348077648
 20
3117.450990652
 11
5704.048644374
 21
3132.344876484
  0
LINE
  5
2E1
100
AcDbEntity
  8
_0-0_
  6
CONTINUOUS
 62
     0
100
AcDbLine
 10
5704.048644374
 20
3132.344876484
 11
5628.268728842
 21
3134.224066793
  0
LINE
  5
2E2
100
AcDbEntity
  8
_0-0_
  6
CONTINUOUS
 62
     0
100
AcDbLine
 10
5628.268728842
 20
3134.224066793
 11
5553.310865438
 21
3123.031463332
  0
LINE
  5
2E3
100
AcDbEntity
  8
_0-0_
  6
CONTINUOUS
 62
     0
100
AcDbLine
 10
5553.310865438
 20
3123.031463332
 11
5481.452610911
 21
3099.107147694
  0
LINE
  5
2E4
100
AcDbEntity
  8
_0-0_
  6
CONTINUOUS
 62
     0
100
AcDbLine
 10
5481.452610911
 20
3099.107147694
 11
5414.877341964
 21
3063.178048102
  0
LINE
  5
2E5
100
AcDbEntity
  8
_0-0_
  6
CONTINUOUS
 62
     0
100
AcDbLine
 10
5414.877341964
 20
3063.178048102
 11
5355.607914453
 21
3016.335852068
  0
LINE
  5
2E6
100
AcDbEntity
  8
_0-0_
  6
CONTINUOUS
 62
     0
100
AcDbLine
 10
5355.607914453
 20
3016.335852068
 11
5305.445199944
 21
2960.003836013
  0
LINE
  5
2E7
100
AcDbEntity
  8
_0-0_
  6
CONTINUOUS
 62
     0
100
AcDbLine
 10
5305.445199944
 20
2960.003836013
 11
5265.913367131
 21
2895.893619741
  0
LINE
  5
2E8
100
AcDbEntity
  8
_0-0_
  6
CONTINUOUS
 62
     0
100
AcDbLine
 10
5265.913367131
 20
2895.893619741
 11
5238.213570751
 21
2825.953159732
  0
LINE
  5
2E9
100
AcDbEntity
  8
_0-0_
  6
CONTINUOUS
 62
     0
100
AcDbLine
 10
5238.213570751
 20
2825.953159732
 11
5223.187455101
 21
2752.307561471
  0
LINE
  5
2EA
100
AcDbEntity
  8
_0-0_
  6
CONTINUOUS
 62
     0
100
AcDbLine
 10
5223.187455101
 20
2752.307561471
 11
5220.491216474
 21
2710.005008205
  0
CIRCLE
  5
2EB
100
AcDbEntity
  8
_0-0_
  6
CONTINUOUS
 62
     0
100
AcDbCircle
 10
2805.813035965
 20
2729.498931885
 40
210
  0
CIRCLE
  5
2EC
100
AcDbEntity
  8
_0-0_
  6
CONTINUOUS
 62
     0
100
AcDbCircle
 10
2805.813035965
 20
2729.498931885
 40
356.9999694824
  0
CIRCLE
  5
2ED
100
AcDbEntity
  8
_0-0_
  6
CONTINUOUS
 62
     0
100
AcDbCircle
 10
5655.812730789
 20
2729.498931885
 40
356.9999694824
  0
CIRCLE
  5
2EE
100
AcDbEntity
  8
_0-0_
  6
CONTINUOUS
 62
     0
100
AcDbCircle
 10
5655.812730789
 20
2729.498931885
 40
210
  0
LINE
  5
2EF
100
AcDbEntity
  8
_0-0_
  6
CONTINUOUS
 62
     0
100
AcDbLine
 10
2415.342575192
 20
2811.473454898
 11
2430.022265225
 21
2809.643156437
  0
LINE
  5
2F0
100
AcDbEntity
  8
_0-0_
  6
CONTINUOUS
 62
     0
100
AcDbLine
 10
2430.022265225
 20
2809.643156437
 11
2444.799587491
 21
2810.367333653
  0
LINE
  5
2F1
100
AcDbEntity
  8
_0-0_
  6
CONTINUOUS
 62
     0
100
AcDbLine
 10
2444.799587491
 20
2810.367333653
 11
2458.834003151
 21
2813.500188452
  0
ARC
  5
2F2
100
AcDbEntity
  8
_0-0_
  6
CONTINUOUS
 62
     0
100
AcDbCircle
 10
6744.164049149
 20
-281.4204711914
 40
5116.428222656
100
AcDbArc
 50
125.5757141113
 51
133.3588256836
  0
ARC
  5
2F3
100
AcDbEntity
  8
_0-0_
  6
CONTINUOUS
 62
     0
100
AcDbCircle
 10
4857.91063118
 20
2415.020256042
 40
1688.1328125
100
AcDbArc
 50
124.7534942627
 51
139.0601043701
  0
ARC
  5
2F4
100
AcDbEntity
  8
_0-0_
  6
CONTINUOUS
 62
     0
100
AcDbCircle
 10
4857.91063118
 20
2415.020256042
 40
1668.580200195
100
AcDbArc
 50
124.7534942627
 51
139.0601043701
  0
ARC
  5
2F5
100
AcDbEntity
  8
_0-0_
  6
CONTINUOUS
 62
     0
100
AcDbCircle
 10
4430.995347977
 20
2858.301269531
 40
50
100
AcDbArc
 50
-90
 51
0
  0
ARC
  5
2F6
100
AcDbEntity
  8
_0-0_
  6
CONTINUOUS
 62
     0
100
AcDbCircle
 10
4498.978502274
 20
2740.005218506
 40
30
100
AcDbArc
 50
-90
 51
0
  0
ARC
  5
2F7
100
AcDbEntity
  8
_0-0_
  6
CONTINUOUS
 62
     0
100
AcDbCircle
 10
4600.56321907
 20
2740.005218506
 40
30
100
AcDbArc
 50
180
 51
270
  0
ARC
  5
2F8
100
AcDbEntity
  8
_0-0_
  6
CONTINUOUS
 62
     0
100
AcDbCircle
 10
2289.009950638
 20
3155.629882813
 40
30
100
AcDbArc
 50
27.10980224609
 51
90
  0
ARC
  5
2F9
100
AcDbEntity
  8
_0-0_
  6
CONTINUOUS
 62
     0
100
AcDbCircle
 10
6711.506334305
 20
2895.621337891
 40
30
100
AcDbArc
 50
90
 51
180
  0
ARC
  5
2FA
100
AcDbEntity
  8
_0-0_
  6
CONTINUOUS
 62
     0
100
AcDbCircle
 10
6711.506334305
 20
2885.863586426
 40
30
100
AcDbArc
 50
180
 51
270
  0
LINE
  5
2FB
100
AcDbEntity
  8
_0-0_
  6
CONTINUOUS
 62
     0
100
AcDbLine
 10
6092.973600895
 20
2805.130120445
 11
6068.613318574
 21
2878.937429748
  0
LINE
  5
2FC
100
AcDbEntity
  8
_0-0_
  6
CONTINUOUS
 62
     0
100
AcDbLine
 10
6068.613318574
 20
2878.937429748
 11
6031.695440848
 21
2947.429700567
  0
LINE
  5
2FD
100
AcDbEntity
  8
_0-0_
  6
CONTINUOUS
 62
     0
100
AcDbLine
 10
6031.695440848
 20
2947.429700567
 11
5983.34169875
 21
3008.525829911
  0
LINE
  5
2FE
100
AcDbEntity
  8
_0-0_
  6
CONTINUOUS
 62
     0
100
AcDbLine
 10
5983.34169875
 20
3008.525829911
 11
5925.021296264
 21
3060.369442806
  0
LINE
  5
2FF
100
AcDbEntity
  8
_0-0_
  6
CONTINUOUS
 62
     0
100
AcDbLine
 10
5925.021296264
 20
3060.369442806
 11
5858.50626931
 21
3101.385297309
  0
LINE
  5
300
100
AcDbEntity
  8
_0-0_
  6
CONTINUOUS
 62
     0
100
AcDbLine
 10
5858.50626931
 20
3101.385297309
 11
5785.817643323
 21
3130.327147435
  0
LINE
  5
301
100
AcDbEntity
  8
_0-0_
  6
CONTINUOUS
 62
     0
100
AcDbLine
 10
5785.817643323
 20
3130.327147435
 11
5709.164025421
 21
3146.315609715
  0
LINE
  5
302
100
AcDbEntity
  8
_0-0_
  6
CONTINUOUS
 62
     0
100
AcDbLine
 10
5709.164025421
 20
3146.315609715
 11
5630.874496996
 21
3148.864882811
  0
LINE
  5
303
100
AcDbEntity
  8
_0-0_
  6
CONTINUOUS
 62
     0
100
AcDbLine
 10
5630.874496996
 20
3148.864882811
 11
5553.327845752
 21
3137.897508351
  0
LINE
  5
304
100
AcDbEntity
  8
_0-0_
  6
CONTINUOUS
 62
     0
100
AcDbLine
 10
5553.327845752
 20
3137.897508351
 11
5478.880287448
 21
3113.746724459
  0
LINE
  5
305
100
AcDbEntity
  8
_0-0_
  6
CONTINUOUS
 62
     0
100
AcDbLine
 10
5478.880287448
 20
3113.746724459
 11
5409.793873469
 21
3077.146340481
  0
LINE
  5
306
100
AcDbEntity
  8
_0-0_
  6
CONTINUOUS
 62
     0
100
AcDbLine
 10
5409.793873469
 20
3077.146340481
 11
5348.167759545
 21
3029.208440564
  0
LINE
  5
307
100
AcDbEntity
  8
_0-0_
  6
CONTINUOUS
 62
     0
100
AcDbLine
 10
5348.167759545
 20
3029.208440564
 11
5295.874423964
 21
2971.38959354
  0
LINE
  5
308
100
AcDbEntity
  8
_0-0_
  6
CONTINUOUS
 62
     0
100
AcDbLine
 10
5295.874423964
 20
2971.38959354
 11
5254.502773265
 21
2905.446595818
  0
LINE
  5
309
100
AcDbEntity
  8
_0-0_
  6
CONTINUOUS
 62
     0
100
AcDbLine
 10
5254.502773265
 20
2905.446595818
 11
5225.30986412
 21
2833.383092015
  0
LINE
  5
30A
100
AcDbEntity
  8
_0-0_
  6
CONTINUOUS
 62
     0
100
AcDbLine
 10
5225.30986412
 20
2833.383092015
 11
5209.182708301
 21
2757.388695227
  0
LINE
  5
30B
100
AcDbEntity
  8
_0-0_
  6
CONTINUOUS
 62
     0
100
AcDbLine
 10
5209.182708301
 20
2757.388695227
 11
5205.989151809
 21
2710.204844557
  0
LINE
  5
30C
100
AcDbEntity
  8
_0-0_
  6
CONTINUOUS
 62
     0
100
AcDbLine
 10
3124.02250254
 20
3426.906561906
 11
3156.360528494
 21
3387.120349087
  0
LINE
  5
30D
100
AcDbEntity
  8
_0-0_
  6
CONTINUOUS
 62
     0
100
AcDbLine
 10
3156.360528494
 20
3387.120349087
 11
3181.047789569
 21
3364.398822943
  0
ENDSEC
  0
SECTION
  2
OBJECTS
  0
DICTIONARY
  5
30E
100
AcDbDictionary
  3
ACAD_GROUP
350
30F
  3
ACAD_IMAGE_DICT
350
310
  3
ACAD_MLINESTYLE
350
311
  0
DICTIONARY
  5
30F
330
30E
100
AcDbDictionary
  0
DICTIONARY
  5
310
100
AcDbDictionary
  0
DICTIONARY
  5
311
100
AcDbDictionary
  3
STANDARD
350
312
  0
RASTERVARIABLES
  5
313
100
AcDbRasterVariables
 90
     0
 70
     1
 71
     1
 72
     0
  0
MLINESTYLE
  5
312
100
AcDbMlineStyle
  2
STANDARD
 70
     0
  3

 62
   256
 51
90
 52
90
 71
     0
  0
ENDSEC
  0
EOF
