  0
SECTION
  2
HEADER
  9
$ACADVER
  1
AC1015
  9
$DWGCODEPAGE
  3
ANSI_932
  9
$EXTMIN
 10
445.3948275862
 20
474.7051724138
  9
$EXTMAX
 10
8464.605172414
 20
5825.294827586
  9
$LIMMIN
 10
0
 20
0
  9
$LIMMAX
 10
8910
 20
6300
  9
$LTSCALE
 40
30
  9
$DIMSCALE
 40
30
  9
$DIMSTYLE
  2
M7DIMSTL
  9
$HANDSEED
  5
7FFFFFFF
  9
$PSLTSCALE
 70
     0
  9
$MEASUREMENT
 70
     1
  0
ENDSEC
  0
SECTION
  2
CLASSES
  0
CLASS
  1
CSOFTARXCLASS
  2
CSoftArxClass
  3
CSRasterApi
 90
     0
280
     0
281
     0
  0
CLASS
  1
IMAGEDEF
  2
AcDbRasterImageDef
  3
ISM
 90
     0
280
     0
281
     0
  0
CLASS
  1
RASTERVARIABLES
  2
AcDbRasterVariables
  3
ISM
 90
     0
280
     0
281
     0
  0
CLASS
  1
IMAGE
  2
AcDbRasterImage
  3
ISM
 90
   127
280
     0
281
     0
  0
CLASS
  1
IMAGEDEF_REACTOR
  2
AcDbRasterImageDefReactor
  3
ISM
 90
     1
280
     0
281
     0
  0
CLASS
  1
HATCH
  2
AcDbHatch
  3
M7
 90
     0
280
     0
281
     1
  0
ENDSEC
  0
SECTION
  2
TABLES
  0
TABLE
  2
VPORT
  5
FF
100
AcDbSymbolTable
 70
     5
  0
VPORT
  5
100
100
AcDbSymbolTableRecord
100
AcDbViewportTableRecord
  2
*ACTIVE
 70
     0
 10
0
 20
0
 11
1
 21
1
 12
4455
 22
3150
 13
0
 23
0
 14
0
 24
0
 15
0
 25
0
 16
0
 26
0
 36
1
 17
0
 27
0
 37
0
 40
3150
 41
1.414285714286
 42
50
 43
0
 44
0
 50
0
 51
0
 71
     0
 72
   100
 73
     1
 74
     3
 75
     0
 76
     0
 77
     0
 78
     0
  0
ENDTAB
  0
TABLE
  2
LTYPE
  5
101
100
AcDbSymbolTable
 70
     1
  0
LTYPE
  5
102
100
AcDbSymbolTableRecord
100
AcDbLinetypeTableRecord
  2
BYBLOCK
 70
     0
  3

 72
    65
 73
     0
 40
0
  0
LTYPE
  5
103
100
AcDbSymbolTableRecord
100
AcDbLinetypeTableRecord
  2
BYLAYER
 70
     0
  3

 72
    65
 73
     0
 40
0
  0
LTYPE
  5
104
100
AcDbSymbolTableRecord
100
AcDbLinetypeTableRecord
  2
CONTINUOUS
 70
     0
  3
Solid line
 72
    65
 73
     0
 40
0
  0
LTYPE
  5
105
100
AcDbSymbolTableRecord
100
AcDbLinetypeTableRecord
  2
DOT
 70
     0
  3
...............................
 72
    65
 73
     2
 40
2
 49
1
 74
     0
 49
-1
 74
     0
  0
LTYPE
  5
106
100
AcDbSymbolTableRecord
100
AcDbLinetypeTableRecord
  2
DASHED
 70
     0
  3
- - - - - - - - - - - - - - - -
 72
    65
 73
     2
 40
4
 49
2
 74
     0
 49
-2
 74
     0
  0
LTYPE
  5
107
100
AcDbSymbolTableRecord
100
AcDbLinetypeTableRecord
  2
DASHED2
 70
     0
  3
-- -- -- -- -- -- -- -- -- -- -
 72
    65
 73
     2
 40
8
 49
5
 74
     0
 49
-3
 74
     0
  0
LTYPE
  5
108
100
AcDbSymbolTableRecord
100
AcDbLinetypeTableRecord
  2
CENTER
 70
     0
  3
--------- - --------- - -------
 72
    65
 73
     4
 40
23
 49
20
 74
     0
 49
-1
 74
     0
 49
1
 74
     0
 49
-1
 74
     0
  0
LTYPE
  5
109
100
AcDbSymbolTableRecord
100
AcDbLinetypeTableRecord
  2
CENTERX2
 70
     0
  3
-------------- - --------------
 72
    65
 73
     4
 40
43
 49
40
 74
     0
 49
-1
 74
     0
 49
1
 74
     0
 49
-1
 74
     0
  0
LTYPE
  5
10A
100
AcDbSymbolTableRecord
100
AcDbLinetypeTableRecord
  2
CENTER2
 70
     0
  3
------ - ----- - ------ - -----
 72
    65
 73
     4
 40
13
 49
10
 74
     0
 49
-1
 74
     0
 49
1
 74
     0
 49
-1
 74
     0
  0
LTYPE
  5
10B
100
AcDbSymbolTableRecord
100
AcDbLinetypeTableRecord
  2
PHANTOM
 70
     0
  3
-------- - - ------- - - ------
 72
    65
 73
     6
 40
25
 49
20
 74
     0
 49
-1
 74
     0
 49
1
 74
     0
 49
-1
 74
     0
 49
1
 74
     0
 49
-1
 74
     0
  0
LTYPE
  5
10C
100
AcDbSymbolTableRecord
100
AcDbLinetypeTableRecord
  2
PHANTOMX2
 70
     0
  3
------------- - - -------------
 72
    65
 73
     6
 40
45
 49
40
 74
     0
 49
-1
 74
     0
 49
1
 74
     0
 49
-1
 74
     0
 49
1
 74
     0
 49
-1
 74
     0
  0
LTYPE
  5
10D
100
AcDbSymbolTableRecord
100
AcDbLinetypeTableRecord
  2
PHANTOM2
 70
     0
  3
---- - - ---- - - ---- - - ----
 72
    65
 73
     6
 40
15
 49
10
 74
     0
 49
-1
 74
     0
 49
1
 74
     0
 49
-1
 74
     0
 49
1
 74
     0
 49
-1
 74
     0
  0
LTYPE
  5
10E
100
AcDbSymbolTableRecord
100
AcDbLinetypeTableRecord
  2
ACAD_ISO06W100
 70
     0
  3
------------ - - - ------------
 72
    65
 73
     8
 40
47
 49
40
 74
     0
 49
-1
 74
     0
 49
1
 74
     0
 49
-1
 74
     0
 49
1
 74
     0
 49
-1
 74
     0
 49
1
 74
     0
 49
-1
 74
     0
  0
LTYPE
  5
10F
100
AcDbSymbolTableRecord
100
AcDbLinetypeTableRecord
  2
ACAD_ISO14W100
 70
     0
  3
---- - - - -------- - - - -----
 72
    65
 73
     8
 40
27
 49
20
 74
     0
 49
-1
 74
     0
 49
1
 74
     0
 49
-1
 74
     0
 49
1
 74
     0
 49
-1
 74
     0
 49
1
 74
     0
 49
-1
 74
     0
  0
LTYPE
  5
110
100
AcDbSymbolTableRecord
100
AcDbLinetypeTableRecord
  2
ACAD_ISO11W100
 70
     0
  3
------- ------ - ------- ------
 72
    65
 73
     6
 40
44
 49
20
 74
     0
 49
-1
 74
     0
 49
20
 74
     0
 49
-1
 74
     0
 49
1
 74
     0
 49
-1
 74
     0
  0
LTYPE
  5
111
100
AcDbSymbolTableRecord
100
AcDbLinetypeTableRecord
  2
ACAD_ISO13W100
 70
     0
  3
------ ------ - - ------ ------
 72
    65
 73
     8
 40
46
 49
20
 74
     0
 49
-1
 74
     0
 49
20
 74
     0
 49
-1
 74
     0
 49
1
 74
     0
 49
-1
 74
     0
 49
1
 74
     0
 49
-1
 74
     0
  0
LTYPE
  5
112
100
AcDbSymbolTableRecord
100
AcDbLinetypeTableRecord
  2
ACAD_ISO15W100
 70
     0
  3
------ ----- - - - ------ -----
 72
    65
 73
    10
 40
48
 49
20
 74
     0
 49
-1
 74
     0
 49
20
 74
     0
 49
-1
 74
     0
 49
1
 74
     0
 49
-1
 74
     0
 49
1
 74
     0
 49
-1
 74
     0
 49
1
 74
     0
 49
-1
 74
     0
  0
LTYPE
  5
113
100
AcDbSymbolTableRecord
100
AcDbLinetypeTableRecord
  2
HIDDEN
 70
     0
  3
. . . . . . . . . . . . . . . .
 72
    65
 73
     2
 40
1.5
 49
1
 74
     0
 49
-0.5
 74
     0
  0
ENDTAB
  0
TABLE
  2
LAYER
  5
114
100
AcDbSymbolTable
 70
     1
  0
LAYER
  5
115
100
AcDbSymbolTableRecord
100
AcDbLayerTableRecord
  2
0
 70
     0
 62
     7
  6
CONTINUOUS
390
116
  0
LAYER
  5
117
100
AcDbSymbolTableRecord
100
AcDbLayerTableRecord
  2
_0-1_
 70
     0
 62
     7
  6
CONTINUOUS
390
   278
  0
LAYER
  5
118
100
AcDbSymbolTableRecord
100
AcDbLayerTableRecord
  2
_0-2_
 70
     0
 62
     7
  6
CONTINUOUS
390
   278
  0
ENDTAB
  0
TABLE
  2
STYLE
  5
119
100
AcDbSymbolTable
 70
     1
  0
STYLE
  5
11A
100
AcDbSymbolTableRecord
100
AcDbTextStyleTableRecord
  2
STANDARD
 70
     0
 40
0
 41
0
 50
0
 71
     0
 42
1
  3
txt
  4
bigfont
  0
STYLE
  5
11B
100
AcDbSymbolTableRecord
100
AcDbTextStyleTableRecord
  2
VSTANDARD
 70
     4
 40
0
 41
0
 50
0
 71
     0
 42
1
  3
txt
  4
bigfont
  0
ENDTAB
  0
TABLE
  2
VIEW
  5
11C
100
AcDbSymbolTable
 70
     0
  0
ENDTAB
  0
TABLE
  2
UCS
  5
11D
100
AcDbSymbolTable
 70
     0
  0
ENDTAB
  0
TABLE
  2
APPID
  5
11E
100
AcDbSymbolTable
 70
     1
  0
APPID
  5
11F
100
AcDbSymbolTableRecord
100
AcDbRegAppTableRecord
  2
ACAD
 70
     0
  0
ENDTAB
  0
TABLE
  2
DIMSTYLE
  5
120
100
AcDbSymbolTable
 70
     1
100
AcDbDimStyleTable
 71
     0
  0
DIMSTYLE
105
121
100
AcDbSymbolTableRecord
100
AcDbDimStyleTableRecord
  2
M7DIMSTL
 70
     0
  3

  4

  5

  6

  7

 40
30
 41
2.5
 42
0.625
 43
3.75
 44
1.25
 45
0
 46
0
 47
0
 48
0
140
2.5
141
2.5
142
0
143
0.03937007874016
144
1
145
0
146
1
147
0.625
 71
     0
 72
     0
 73
     0
 74
     0
 75
     0
 76
     0
 77
     1
 78
     8
170
     0
171
     3
172
     1
173
     0
174
     0
175
     0
176
     0
177
     0
178
     0
270
     2
271
     2
272
     2
273
     2
274
     3
340
11A
275
     0
280
     0
281
     0
282
     0
283
     0
284
     8
285
     0
286
     0
287
     3
288
     0
  0
ENDTAB
  0
TABLE
  2
BLOCK_RECORD
  5
122
100
AcDbSymbolTable
 70
     2
  0
BLOCK_RECORD
  5
123
100
AcDbSymbolTableRecord
100
AcDbBlockTableRecord
  2
*MODEL_SPACE
  0
BLOCK_RECORD
  5
124
100
AcDbSymbolTableRecord
100
AcDbBlockTableRecord
  2
*PAPER_SPACE
  0
BLOCK_RECORD
  5
125
100
AcDbSymbolTableRecord
100
AcDbBlockTableRecord
  2
_DOT
  0
BLOCK_RECORD
  5
126
100
AcDbSymbolTableRecord
100
AcDbBlockTableRecord
  2
_OPEN30
  0
BLOCK_RECORD
  5
127
100
AcDbSymbolTableRecord
100
AcDbBlockTableRecord
  2
_ClosedBlank
  0
BLOCK_RECORD
  5
128
100
AcDbSymbolTableRecord
100
AcDbBlockTableRecord
  2
_Origin
  0
BLOCK_RECORD
  5
129
100
AcDbSymbolTableRecord
100
AcDbBlockTableRecord
  2
_Oblique
  0
BLOCK_RECORD
  5
12A
100
AcDbSymbolTableRecord
100
AcDbBlockTableRecord
  2
_Origin2
  0
BLOCK_RECORD
  5
12B
100
AcDbSymbolTableRecord
100
AcDbBlockTableRecord
  2
_BoxBlank
  0
BLOCK_RECORD
  5
12C
100
AcDbSymbolTableRecord
100
AcDbBlockTableRecord
  2
_BoxFilled
  0
BLOCK_RECORD
  5
12D
100
AcDbSymbolTableRecord
100
AcDbBlockTableRecord
  2
_Integral
  0
BLOCK_RECORD
  5
12E
100
AcDbSymbolTableRecord
100
AcDbBlockTableRecord
  2
BK2
  0
BLOCK_RECORD
  5
12F
100
AcDbSymbolTableRecord
100
AcDbBlockTableRecord
  2
BK3
  0
BLOCK_RECORD
  5
130
100
AcDbSymbolTableRecord
100
AcDbBlockTableRecord
  2
BK4
  0
ENDTAB
  0
ENDSEC
  0
SECTION
  2
BLOCKS
  0
BLOCK
  5
131
100
AcDbEntity
  8
0
100
AcDbBlockBegin
  2
*MODEL_SPACE
 70
     0
 10
0
 20
0
  3
*MODEL_SPACE
  1

  0
ENDBLK
  5
132
100
AcDbEntity
  8
0
100
AcDbBlockEnd
  0
BLOCK
  5
133
100
AcDbEntity
 67
     1
  8
0
100
AcDbBlockBegin
  2
*PAPER_SPACE
 70
     0
 10
0
 20
0
  3
*PAPER_SPACE
  1

  0
ENDBLK
  5
134
100
AcDbEntity
 67
     1
  8
0
100
AcDbBlockEnd
  0
BLOCK
  5
135
100
AcDbEntity
 67
     1
  8
0
100
AcDbBlockBegin
  2
_DOT
 70
     0
 10
0
 20
0
  3
_DOT
  1

  0
LWPOLYLINE
  5
136
100
AcDbEntity
  8
0
  6
BYBLOCK
 62
     0
100
AcDbPolyline
 90
     2
 70
     1
 43
0.5
 10
-0.25
 20
0
 42
1
 10
0.25
 20
0
 42
1
  0
LINE
  5
137
100
AcDbEntity
  8
0
  6
BYBLOCK
 62
     0
100
AcDbLine
 10
-0.5
 20
0
 11
-1
 21
0
  0
ENDBLK
  5
138
100
AcDbEntity
  8
0
100
AcDbBlockEnd
  0
BLOCK
  5
139
100
AcDbEntity
 67
     1
  8
0
100
AcDbBlockBegin
  2
_OPEN30
 70
     0
 10
0
 20
0
  3
_OPEN30
  1

  0
LINE
  5
13A
100
AcDbEntity
  8
0
  6
BYBLOCK
 62
     0
100
AcDbLine
 10
-1
 20
0.26794919
 11
0
 21
0
  0
LINE
  5
13B
100
AcDbEntity
  8
0
  6
BYBLOCK
 62
     0
100
AcDbLine
 10
-1
 20
-0.26794919
 11
0
 21
0
  0
LINE
  5
13C
100
AcDbEntity
  8
0
  6
BYBLOCK
 62
     0
100
AcDbLine
 10
0
 20
0
 11
-1
 21
0
  0
ENDBLK
  5
13D
100
AcDbEntity
  8
0
100
AcDbBlockEnd
  0
BLOCK
  5
13E
100
AcDbEntity
 67
     1
  8
0
100
AcDbBlockBegin
  2
_ClosedBlank
 70
     0
 10
0
 20
0
  3
_ClosedBlank
  1

  0
LINE
  5
13F
100
AcDbEntity
  8
0
  6
BYBLOCK
 62
     0
100
AcDbLine
 10
-1
 20
0.1666666666667
 11
0
 21
0
  0
LINE
  5
140
100
AcDbEntity
  8
0
  6
BYBLOCK
 62
     0
100
AcDbLine
 10
0
 20
0
 11
-1
 21
-0.1666666666667
  0
LINE
  5
141
100
AcDbEntity
  8
0
  6
BYBLOCK
 62
     0
100
AcDbLine
 10
-1
 20
0.1666666666667
 11
-1
 21
-0.1666666666667
  0
ENDBLK
  5
142
100
AcDbEntity
  8
0
100
AcDbBlockEnd
  0
BLOCK
  5
143
100
AcDbEntity
 67
     1
  8
0
100
AcDbBlockBegin
  2
_Origin
 70
     0
 10
0
 20
0
  3
_Origin
  1

  0
CIRCLE
  5
144
100
AcDbEntity
  8
0
  6
BYBLOCK
 62
     0
100
AcDbCircle
 10
0
 20
0
 40
0.5
  0
LINE
  5
145
100
AcDbEntity
  8
0
  6
BYBLOCK
 62
     0
100
AcDbLine
 10
0
 20
0
 11
-1
 21
0
  0
ENDBLK
  5
146
100
AcDbEntity
  8
0
100
AcDbBlockEnd
  0
BLOCK
  5
147
100
AcDbEntity
 67
     1
  8
0
100
AcDbBlockBegin
  2
_Oblique
 70
     0
 10
0
 20
0
  3
_Oblique
  1

  0
LINE
  5
148
100
AcDbEntity
  8
0
  6
BYBLOCK
 62
     0
100
AcDbLine
 10
-0.5
 20
-0.5
 11
0.5
 21
0.5
  0
ENDBLK
  5
149
100
AcDbEntity
  8
0
100
AcDbBlockEnd
  0
BLOCK
  5
14A
100
AcDbEntity
 67
     1
  8
0
100
AcDbBlockBegin
  2
_Origin2
 70
     0
 10
0
 20
0
  3
_Origin2
  1

  0
CIRCLE
  5
14B
100
AcDbEntity
  8
0
  6
BYBLOCK
 62
     0
100
AcDbCircle
 10
0
 20
0
 40
0.5
  0
CIRCLE
  5
14C
100
AcDbEntity
  8
0
  6
BYBLOCK
 62
     0
100
AcDbCircle
 10
0
 20
0
 40
0.25
  0
LINE
  5
14D
100
AcDbEntity
  8
0
  6
BYBLOCK
 62
     0
100
AcDbLine
 10
-0.5
 20
0
 11
-1
 21
0
  0
ENDBLK
  5
14E
100
AcDbEntity
  8
0
100
AcDbBlockEnd
  0
BLOCK
  5
14F
100
AcDbEntity
 67
     1
  8
0
100
AcDbBlockBegin
  2
_BoxBlank
 70
     0
 10
0
 20
0
  3
_BoxBlank
  1

  0
LINE
  5
150
100
AcDbEntity
  8
0
  6
BYBLOCK
 62
     0
100
AcDbLine
 10
-0.5
 20
-0.5
 11
0.5
 21
-0.5
  0
LINE
  5
151
100
AcDbEntity
  8
0
  6
BYBLOCK
 62
     0
100
AcDbLine
 10
0.5
 20
-0.5
 11
0.5
 21
0.5
  0
LINE
  5
152
100
AcDbEntity
  8
0
  6
BYBLOCK
 62
     0
100
AcDbLine
 10
0.5
 20
0.5
 11
-0.5
 21
0.5
  0
LINE
  5
153
100
AcDbEntity
  8
0
  6
BYBLOCK
 62
     0
100
AcDbLine
 10
-0.5
 20
0.5
 11
-0.5
 21
-0.5
  0
LINE
  5
154
100
AcDbEntity
  8
0
  6
BYBLOCK
 62
     0
100
AcDbLine
 10
-0.5
 20
0
 11
-1
 21
0
  0
ENDBLK
  5
155
100
AcDbEntity
  8
0
100
AcDbBlockEnd
  0
BLOCK
  5
156
100
AcDbEntity
 67
     1
  8
0
100
AcDbBlockBegin
  2
_BoxFilled
 70
     0
 10
0
 20
0
  3
_BoxFilled
  1

  0
SOLID
  5
157
100
AcDbEntity
  8
0
  6
BYBLOCK
 62
     0
100
AcDbTrace
 10
-0.5
 20
0.5
 11
0.5
 21
0.5
 12
-0.5
 22
-0.5
 13
0.5
 23
-0.5
  0
LINE
  5
158
100
AcDbEntity
  8
0
  6
BYBLOCK
 62
     0
100
AcDbLine
 10
-0.5
 20
0
 11
-1
 21
0
  0
ENDBLK
  5
159
100
AcDbEntity
  8
0
100
AcDbBlockEnd
  0
BLOCK
  5
15A
100
AcDbEntity
 67
     1
  8
0
100
AcDbBlockBegin
  2
_Integral
 70
     0
 10
0
 20
0
  3
_Integral
  1

  0
ARC
  5
15B
100
AcDbEntity
  8
0
  6
BYBLOCK
 62
     0
100
AcDbCircle
 10
0.44488802
 20
-0.09133463
 40
0.45416667
100
AcDbArc
 50
101.999999998
 51
167.9999999799
  0
ARC
  5
15C
100
AcDbEntity
  8
0
  6
BYBLOCK
 62
     0
100
AcDbCircle
 10
-0.44488802
 20
0.09133463
 40
0.45416667
100
AcDbArc
 50
282.0000000215
 51
348.0000000034
  0
ENDBLK
  5
15D
100
AcDbEntity
  8
0
100
AcDbBlockEnd
  0
BLOCK
  5
15E
100
AcDbEntity
  8
_0-1_
100
AcDbBlockBegin
  2
BK2
 70
    64
 10
0
 20
0
  3
BK2
  1

  0
LINE
  5
15F
100
AcDbEntity
  8
_0-1_
  6
CONTINUOUS
 62
     0
100
AcDbLine
 10
8116.905172414
 20
1314.705172414
 11
8056.505172414
 21
1314.705172414
  0
LINE
  5
160
100
AcDbEntity
  8
_0-1_
  6
CONTINUOUS
 62
     0
100
AcDbLine
 10
8164.605172414
 20
2004.705172414
 11
5014.405172414
 21
2004.705172414
  0
LINE
  5
161
100
AcDbEntity
  8
_0-1_
  6
CONTINUOUS
 62
     0
100
AcDbLine
 10
5014.405172414
 20
1948.805172414
 11
8116.905172414
 21
1948.805172414
  0
LINE
  5
162
100
AcDbEntity
  8
_0-1_
  6
CONTINUOUS
 62
     0
100
AcDbLine
 10
8056.505172414
 20
1948.805172414
 11
8056.505172414
 21
1594.205172414
  0
LINE
  5
163
100
AcDbEntity
  8
_0-1_
  6
CONTINUOUS
 62
     0
100
AcDbLine
 10
3721.405172414
 20
1137.805172414
 11
3759.205172414
 21
1112.905172414
  0
LINE
  5
164
100
AcDbEntity
  8
_0-1_
  6
CONTINUOUS
 62
     0
100
AcDbLine
 10
3759.205172414
 20
1112.905172414
 11
3842.605172414
 21
1112.905172414
  0
LINE
  5
165
100
AcDbEntity
  8
_0-1_
  6
CONTINUOUS
 62
     0
100
AcDbLine
 10
3842.605172414
 20
1112.905172414
 11
3858.005172414
 21
1062.205172414
  0
LINE
  5
166
100
AcDbEntity
  8
_0-1_
  6
CONTINUOUS
 62
     0
100
AcDbLine
 10
3753.505172414
 20
2159.005172414
 11
3666.305172414
 21
2159.005172414
  0
LINE
  5
167
100
AcDbEntity
  8
_0-1_
  6
CONTINUOUS
 62
     0
100
AcDbLine
 10
4772.805172414
 20
2646.405172414
 11
4721.705172414
 21
2208.605172414
  0
LINE
  5
168
100
AcDbEntity
  8
_0-1_
  6
CONTINUOUS
 62
     0
100
AcDbLine
 10
3610.405172414
 20
2046.505172414
 11
3666.305172414
 21
2159.005172414
  0
LINE
  5
169
100
AcDbEntity
  8
_0-1_
  6
CONTINUOUS
 62
     0
100
AcDbLine
 10
3532.605172414
 20
1984.105172414
 11
3509.705172414
 21
1978.305172414
  0
LINE
  5
16A
100
AcDbEntity
  8
_0-1_
  6
CONTINUOUS
 62
     0
100
AcDbLine
 10
3509.705172414
 20
1526.305172414
 11
3509.705172414
 21
1943.205172414
  0
LINE
  5
16B
100
AcDbEntity
  8
_0-1_
  6
CONTINUOUS
 62
     0
100
AcDbLine
 10
3519.705172414
 20
1516.605172414
 11
3726.105172414
 21
1516.605172414
  0
LINE
  5
16C
100
AcDbEntity
  8
_0-1_
  6
CONTINUOUS
 62
     0
100
AcDbLine
 10
3525.605172414
 20
1374.705172414
 11
3525.605172414
 21
1506.805172414
  0
LINE
  5
16D
100
AcDbEntity
  8
_0-1_
  6
CONTINUOUS
 62
     0
100
AcDbLine
 10
3710.105172414
 20
1355.105172414
 11
3721.405172414
 21
1137.805172414
  0
LINE
  5
16E
100
AcDbEntity
  8
_0-1_
  6
CONTINUOUS
 62
     0
100
AcDbLine
 10
3502.605172414
 20
1340.205172414
 11
3710.105172414
 21
1355.105172414
  0
LINE
  5
16F
100
AcDbEntity
  8
_0-1_
  6
CONTINUOUS
 62
     0
100
AcDbLine
 10
3474.705172414
 20
1147.505172414
 11
3474.705172414
 21
1310.905172414
  0
LINE
  5
170
100
AcDbEntity
  8
_0-1_
  6
CONTINUOUS
 62
     0
100
AcDbLine
 10
3484.705172414
 20
1137.805172414
 11
4012.205172414
 21
1137.805172414
  0
LINE
  5
171
100
AcDbEntity
  8
_0-1_
  6
CONTINUOUS
 62
     0
100
AcDbLine
 10
3759.205172414
 20
1191.505172414
 11
3736.505172414
 21
1330.405172414
  0
LINE
  5
172
100
AcDbEntity
  8
_0-1_
  6
CONTINUOUS
 62
     0
100
AcDbLine
 10
3726.105172414
 20
1950.405172414
 11
3726.105172414
 21
1355.105172414
  0
LINE
  5
173
100
AcDbEntity
  8
_0-1_
  6
CONTINUOUS
 62
     0
100
AcDbLine
 10
4814.205172414
 20
2683.705172414
 11
4768.505172414
 21
2209.305172414
  0
LINE
  5
174
100
AcDbEntity
  8
_0-1_
  6
CONTINUOUS
 62
     0
100
AcDbLine
 10
4772.805172414
 20
2646.405172414
 11
4141.105172414
 21
2646.405172414
  0
LINE
  5
175
100
AcDbEntity
  8
_0-1_
  6
CONTINUOUS
 62
     0
100
AcDbLine
 10
4058.205172414
 20
1997.505172414
 11
3865.005172414
 21
1997.505172414
  0
LINE
  5
176
100
AcDbEntity
  8
_0-1_
  6
CONTINUOUS
 62
     0
100
AcDbLine
 10
4185.205172414
 20
2193.305172414
 11
4084.605172414
 21
2012.805172414
  0
LINE
  5
177
100
AcDbEntity
  8
_0-1_
  6
CONTINUOUS
 62
     0
100
AcDbLine
 10
4784.205172414
 20
2208.605172414
 11
4211.605172414
 21
2208.605172414
  0
LINE
  5
178
100
AcDbEntity
  8
_0-1_
  6
CONTINUOUS
 62
     0
100
AcDbLine
 10
3784.005172414
 20
2221.105172414
 11
3835.005172414
 21
2221.105172414
  0
LINE
  5
179
100
AcDbEntity
  8
_0-1_
  6
CONTINUOUS
 62
     0
100
AcDbLine
 10
3835.005172414
 20
2026.905172414
 11
3835.005172414
 21
2221.105172414
  0
LINE
  5
17A
100
AcDbEntity
  8
_0-1_
  6
CONTINUOUS
 62
     0
100
AcDbLine
 10
4580.205172414
 20
1933.705172414
 11
4568.305172414
 21
1968.105172414
  0
LINE
  5
17B
100
AcDbEntity
  8
_0-1_
  6
CONTINUOUS
 62
     0
100
AcDbLine
 10
4741.605172414
 20
1913.705172414
 11
4608.705172414
 21
1913.705172414
  0
LINE
  5
17C
100
AcDbEntity
  8
_0-1_
  6
CONTINUOUS
 62
     0
100
AcDbLine
 10
4756.805172414
 20
1987.605172414
 11
4769.805172414
 21
1953.105172414
  0
LINE
  5
17D
100
AcDbEntity
  8
_0-1_
  6
CONTINUOUS
 62
     0
100
AcDbLine
 10
4728.605172414
 20
2006.805172414
 11
4596.805172414
 21
2006.805172414
  0
LINE
  5
17E
100
AcDbEntity
  8
_0-1_
  6
CONTINUOUS
 62
     0
100
AcDbLine
 10
4572.105172414
 20
1957.205172414
 11
4768.305172414
 21
1957.205172414
  0
LINE
  5
17F
100
AcDbEntity
  8
_0-1_
  6
CONTINUOUS
 62
     0
100
AcDbLine
 10
3361.805172414
 20
2279.005172414
 11
3468.005172414
 21
2279.005172414
  0
LINE
  5
180
100
AcDbEntity
  8
_0-1_
  6
CONTINUOUS
 62
     0
100
AcDbLine
 10
3438.005172414
 20
2557.705172414
 11
3422.005172414
 21
2557.705172414
  0
LINE
  5
181
100
AcDbEntity
  8
_0-1_
  6
CONTINUOUS
 62
     0
100
AcDbLine
 10
3468.005172414
 20
2528.405172414
 11
3468.005172414
 21
2279.005172414
  0
LINE
  5
182
100
AcDbEntity
  8
_0-1_
  6
CONTINUOUS
 62
     0
100
AcDbLine
 10
3387.405172414
 20
2221.705172414
 11
3387.405172414
 21
2279.005172414
  0
LINE
  5
183
100
AcDbEntity
  8
_0-1_
  6
CONTINUOUS
 62
     0
100
AcDbLine
 10
3590.605172414
 20
2219.705172414
 11
3451.605172414
 21
2219.705172414
  0
LINE
  5
184
100
AcDbEntity
  8
_0-1_
  6
CONTINUOUS
 62
     0
100
AcDbLine
 10
3558.705172414
 20
2192.305172414
 11
3417.505172414
 21
2192.305172414
  0
LINE
  5
185
100
AcDbEntity
  8
_0-1_
  6
CONTINUOUS
 62
     0
100
AcDbLine
 10
3588.405172414
 20
2167.905172414
 11
3595.305172414
 21
2127.905172414
  0
LINE
  5
186
100
AcDbEntity
  8
_0-1_
  6
CONTINUOUS
 62
     0
100
AcDbLine
 10
3620.205172414
 20
2195.305172414
 11
3631.905172414
 21
2127.905172414
  0
LINE
  5
187
100
AcDbEntity
  8
_0-1_
  6
CONTINUOUS
 62
     0
100
AcDbLine
 10
3488.905172414
 20
2164.605172414
 11
3589.505172414
 21
2161.605172414
  0
LINE
  5
188
100
AcDbEntity
  8
_0-1_
  6
CONTINUOUS
 62
     0
100
AcDbLine
 10
3429.105172414
 20
2151.905172414
 11
3415.305172414
 21
2191.605172414
  0
LINE
  5
189
100
AcDbEntity
  8
_0-1_
  6
CONTINUOUS
 62
     0
100
AcDbLine
 10
3461.705172414
 20
2183.605172414
 11
3458.305172414
 21
2192.305172414
  0
LINE
  5
18A
100
AcDbEntity
  8
_0-1_
  6
CONTINUOUS
 62
     0
100
AcDbLine
 10
3361.805172414
 20
2499.005172414
 11
3361.805172414
 21
2279.005172414
  0
LINE
  5
18B
100
AcDbEntity
  8
_0-1_
  6
CONTINUOUS
 62
     0
100
AcDbLine
 10
4158.005172414
 20
1409.305172414
 11
4088.005172414
 21
1321.705172414
  0
LINE
  5
18C
100
AcDbEntity
  8
_0-1_
  6
CONTINUOUS
 62
     0
100
AcDbLine
 10
4889.005172414
 20
1162.605172414
 11
4889.005172414
 21
948.4051724138
  0
LINE
  5
18D
100
AcDbEntity
  8
_0-1_
  6
CONTINUOUS
 62
     0
100
AcDbLine
 10
4956.805172414
 20
1162.605172414
 11
4956.805172414
 21
948.4051724138
  0
LINE
  5
18E
100
AcDbEntity
  8
_0-1_
  6
CONTINUOUS
 62
     0
100
AcDbLine
 10
5554.205172414
 20
948.4051724138
 11
5554.205172414
 21
995.2051724138
  0
LINE
  5
18F
100
AcDbEntity
  8
_0-1_
  6
CONTINUOUS
 62
     0
100
AcDbLine
 10
5554.205172414
 20
995.2051724138
 11
5767.405172414
 21
995.2051724138
  0
LINE
  5
190
100
AcDbEntity
  8
_0-1_
  6
CONTINUOUS
 62
     0
100
AcDbLine
 10
5767.405172414
 20
948.4051724138
 11
5767.405172414
 21
995.2051724138
  0
LINE
  5
191
100
AcDbEntity
  8
_0-1_
  6
CONTINUOUS
 62
     0
100
AcDbLine
 10
6550.805172414
 20
996.5051724138
 11
6538.305172414
 21
948.4051724138
  0
LINE
  5
192
100
AcDbEntity
  8
_0-1_
  6
CONTINUOUS
 62
     0
100
AcDbLine
 10
5767.405172414
 20
948.4051724138
 11
6538.305172414
 21
948.4051724138
  0
LINE
  5
193
100
AcDbEntity
  8
_0-1_
  6
CONTINUOUS
 62
     0
100
AcDbLine
 10
4894.105172414
 20
1768.005172414
 11
4894.105172414
 21
1526.205172414
  0
LINE
  5
194
100
AcDbEntity
  8
_0-1_
  6
CONTINUOUS
 62
     0
100
AcDbLine
 10
4934.905172414
 20
1320.905172414
 11
5274.905172414
 21
1320.905172414
  0
LINE
  5
195
100
AcDbEntity
  8
_0-1_
  6
CONTINUOUS
 62
     0
100
AcDbLine
 10
3567.005172414
 20
1768.005172414
 11
4894.105172414
 21
1768.005172414
  0
LINE
  5
196
100
AcDbEntity
  8
_0-1_
  6
CONTINUOUS
 62
     0
100
AcDbLine
 10
4870.405172414
 20
1363.005172414
 11
4934.905172414
 21
1382.505172414
  0
LINE
  5
197
100
AcDbEntity
  8
_0-1_
  6
CONTINUOUS
 62
     0
100
AcDbLine
 10
4403.105172414
 20
1526.205172414
 11
4894.105172414
 21
1526.205172414
  0
LINE
  5
198
100
AcDbEntity
  8
_0-1_
  6
CONTINUOUS
 62
     0
100
AcDbLine
 10
5094.005172414
 20
1948.805172414
 11
5094.005172414
 21
1563.105172414
  0
LINE
  5
199
100
AcDbEntity
  8
_0-1_
  6
CONTINUOUS
 62
     0
100
AcDbLine
 10
5053.405172414
 20
1361.605172414
 11
5247.005172414
 21
1361.605172414
  0
LINE
  5
19A
100
AcDbEntity
  8
_0-1_
  6
CONTINUOUS
 62
     0
100
AcDbLine
 10
5304.305172414
 20
1393.305172414
 11
5244.605172414
 21
1361.605172414
  0
LINE
  5
19B
100
AcDbEntity
  8
_0-1_
  6
CONTINUOUS
 62
     0
100
AcDbLine
 10
5053.405172414
 20
1473.205172414
 11
5053.405172414
 21
1361.605172414
  0
LINE
  5
19C
100
AcDbEntity
  8
_0-1_
  6
CONTINUOUS
 62
     0
100
AcDbLine
 10
5304.305172414
 20
1473.205172414
 11
5304.305172414
 21
1393.305172414
  0
LINE
  5
19D
100
AcDbEntity
  8
_0-1_
  6
CONTINUOUS
 62
     0
100
AcDbLine
 10
6593.205172414
 20
1433.305172414
 11
6642.205172414
 21
1362.105172414
  0
LINE
  5
19E
100
AcDbEntity
  8
_0-1_
  6
CONTINUOUS
 62
     0
100
AcDbLine
 10
6508.505172414
 20
1209.205172414
 11
6435.105172414
 21
1209.205172414
  0
LINE
  5
19F
100
AcDbEntity
  8
_0-1_
  6
CONTINUOUS
 62
     0
100
AcDbLine
 10
7318.105172414
 20
1433.305172414
 11
7479.505172414
 21
1207.605172414
  0
LINE
  5
1A0
100
AcDbEntity
  8
_0-1_
  6
CONTINUOUS
 62
     0
100
AcDbLine
 10
7408.705172414
 20
1207.605172414
 11
7479.505172414
 21
1207.605172414
  0
LINE
  5
1A1
100
AcDbEntity
  8
_0-1_
  6
CONTINUOUS
 62
     0
100
AcDbLine
 10
7318.105172414
 20
1433.305172414
 11
7286.605172414
 21
1362.105172414
  0
LINE
  5
1A2
100
AcDbEntity
  8
_0-1_
  6
CONTINUOUS
 62
     0
100
AcDbLine
 10
7286.605172414
 20
1362.105172414
 11
7383.605172414
 21
1220.805172414
  0
LINE
  5
1A3
100
AcDbEntity
  8
_0-1_
  6
CONTINUOUS
 62
     0
100
AcDbLine
 10
8164.605172414
 20
1433.305172414
 11
8164.605172414
 21
2004.705172414
  0
LINE
  5
1A4
100
AcDbEntity
  8
_0-1_
  6
CONTINUOUS
 62
     0
100
AcDbLine
 10
8116.905172414
 20
2004.705172414
 11
8116.905172414
 21
1314.705172414
  0
LINE
  5
1A5
100
AcDbEntity
  8
_0-1_
  6
CONTINUOUS
 62
     0
100
AcDbLine
 10
8056.505172414
 20
1314.705172414
 11
8056.505172414
 21
1147.105172414
  0
LINE
  5
1A6
100
AcDbEntity
  8
_0-1_
  6
CONTINUOUS
 62
     0
100
AcDbLine
 10
7980.105172414
 20
1147.105172414
 11
8056.505172414
 21
1147.105172414
  0
LINE
  5
1A7
100
AcDbEntity
  8
_0-1_
  6
CONTINUOUS
 62
     0
100
AcDbLine
 10
7598.305172414
 20
1053.905172414
 11
7334.205172414
 21
993.9051724138
  0
LINE
  5
1A8
100
AcDbEntity
  8
_0-1_
  6
CONTINUOUS
 62
     0
100
AcDbLine
 10
7334.205172414
 20
993.9051724138
 11
7334.205172414
 21
964.5051724138
  0
LINE
  5
1A9
100
AcDbEntity
  8
_0-1_
  6
CONTINUOUS
 62
     0
100
AcDbLine
 10
7598.305172414
 20
1273.205172414
 11
7598.305172414
 21
1053.905172414
  0
LINE
  5
1AA
100
AcDbEntity
  8
_0-1_
  6
CONTINUOUS
 62
     0
100
AcDbLine
 10
7383.105172414
 20
1339.605172414
 11
8051.005172414
 21
1339.605172414
  0
LINE
  5
1AB
100
AcDbEntity
  8
_0-1_
  6
CONTINUOUS
 62
     0
100
AcDbLine
 10
7980.105172414
 20
1273.205172414
 11
7980.105172414
 21
1053.905172414
  0
LINE
  5
1AC
100
AcDbEntity
  8
_0-1_
  6
CONTINUOUS
 62
     0
100
AcDbLine
 10
7920.005172414
 20
1331.905172414
 11
7658.405172414
 21
1331.905172414
  0
LINE
  5
1AD
100
AcDbEntity
  8
_0-1_
  6
CONTINUOUS
 62
     0
100
AcDbLine
 10
7889.605172414
 20
1053.905172414
 11
7950.005172414
 21
1013.605172414
  0
LINE
  5
1AE
100
AcDbEntity
  8
_0-1_
  6
CONTINUOUS
 62
     0
100
AcDbLine
 10
7798.505172414
 20
1053.905172414
 11
7920.905172414
 21
972.2051724138
  0
LINE
  5
1AF
100
AcDbEntity
  8
_0-1_
  6
CONTINUOUS
 62
     0
100
AcDbLine
 10
7950.005172414
 20
1013.605172414
 11
7920.905172414
 21
972.2051724138
  0
LINE
  5
1B0
100
AcDbEntity
  8
_0-1_
  6
CONTINUOUS
 62
     0
100
AcDbLine
 10
4088.005172414
 20
1321.705172414
 11
4165.505172414
 21
1309.805172414
  0
LINE
  5
1B1
100
AcDbEntity
  8
_0-1_
  6
CONTINUOUS
 62
     0
100
AcDbLine
 10
3779.005172414
 20
1175.005172414
 11
4101.605172414
 21
1175.005172414
  0
LINE
  5
1B2
100
AcDbEntity
  8
_0-1_
  6
CONTINUOUS
 62
     0
100
AcDbLine
 10
4889.005172414
 20
1162.605172414
 11
4748.905172414
 21
1162.605172414
  0
LINE
  5
1B3
100
AcDbEntity
  8
_0-1_
  6
CONTINUOUS
 62
     0
100
AcDbLine
 10
4828.505172414
 20
1352.005172414
 11
4642.505172414
 21
1352.005172414
  0
LINE
  5
1B4
100
AcDbEntity
  8
_0-1_
  6
CONTINUOUS
 62
     0
100
AcDbLine
 10
4714.605172414
 20
948.4051724138
 11
5554.205172414
 21
948.4051724138
  0
LINE
  5
1B5
100
AcDbEntity
  8
_0-1_
  6
CONTINUOUS
 62
     0
100
AcDbLine
 10
4956.805172414
 20
1162.605172414
 11
6619.105172414
 21
1162.605172414
  0
LINE
  5
1B6
100
AcDbEntity
  8
_0-1_
  6
CONTINUOUS
 62
     0
100
AcDbLine
 10
5322.705172414
 20
1355.105172414
 11
6540.005172414
 21
1355.105172414
  0
LINE
  5
1B7
100
AcDbEntity
  8
_0-1_
  6
CONTINUOUS
 62
     0
100
AcDbLine
 10
6648.405172414
 20
958.0051724138
 11
6550.805172414
 21
996.5051724138
  0
LINE
  5
1B8
100
AcDbEntity
  8
_0-1_
  6
CONTINUOUS
 62
     0
100
AcDbLine
 10
7334.205172414
 20
964.5051724138
 11
7242.805172414
 21
964.5051724138
  0
LINE
  5
1B9
100
AcDbEntity
  8
_0-1_
  6
CONTINUOUS
 62
     0
100
AcDbLine
 10
7980.105172414
 20
1053.905172414
 11
7598.305172414
 21
1053.905172414
  0
LINE
  5
1BA
100
AcDbEntity
  8
_0-1_
  6
CONTINUOUS
 62
     0
100
AcDbLine
 10
3545.605172414
 20
1355.105172414
 11
4114.705172414
 21
1355.105172414
  0
LINE
  5
1BB
100
AcDbEntity
  8
_0-1_
  6
CONTINUOUS
 62
     0
100
AcDbLine
 10
4934.905172414
 20
2764.405172414
 11
4934.905172414
 21
1320.905172414
  0
LINE
  5
1BC
100
AcDbEntity
  8
_0-1_
  6
CONTINUOUS
 62
     0
100
AcDbLine
 10
5014.405172414
 20
2764.405172414
 11
4934.905172414
 21
2764.405172414
  0
LINE
  5
1BD
100
AcDbEntity
  8
_0-1_
  6
CONTINUOUS
 62
     0
100
AcDbLine
 10
5014.405172414
 20
2764.405172414
 11
5014.405172414
 21
1473.205172414
  0
LINE
  5
1BE
100
AcDbEntity
  8
_0-1_
  6
CONTINUOUS
 62
     0
100
AcDbLine
 10
3456.705172414
 20
2132.105172414
 11
3595.305172414
 21
2127.905172414
  0
LINE
  5
1BF
100
AcDbEntity
  8
_0-1_
  6
CONTINUOUS
 62
     0
100
AcDbLine
 10
3567.005172414
 20
1998.805172414
 11
3567.005172414
 21
1355.105172414
  0
LINE
  5
1C0
100
AcDbEntity
  8
_0-1_
  6
CONTINUOUS
 62
     0
100
AcDbLine
 10
5094.005172414
 20
1563.105172414
 11
8061.905172414
 21
1563.105172414
  0
LINE
  5
1C1
100
AcDbEntity
  8
_0-1_
  6
CONTINUOUS
 62
     0
100
AcDbLine
 10
4894.105172414
 20
1768.005172414
 11
4922.205172414
 21
1799.705172414
  0
LINE
  5
1C2
100
AcDbEntity
  8
_0-1_
  6
CONTINUOUS
 62
     0
100
AcDbLine
 10
4797.205172414
 20
2764.405172414
 11
4118.105172414
 21
2764.405172414
  0
LINE
  5
1C3
100
AcDbEntity
  8
_0-1_
  6
CONTINUOUS
 62
     0
100
AcDbLine
 10
4897.205172414
 20
2667.305172414
 11
4922.205172414
 21
1799.705172414
  0
LINE
  5
1C4
100
AcDbEntity
  8
_0-1_
  6
CONTINUOUS
 62
     0
100
AcDbLine
 10
4895.305172414
 20
2683.705172414
 11
4140.005172414
 21
2683.705172414
  0
LINE
  5
1C5
100
AcDbEntity
  8
_0-1_
  6
CONTINUOUS
 62
     0
100
AcDbLine
 10
3631.905172414
 20
2127.905172414
 11
3650.905172414
 21
2127.905172414
  0
LINE
  5
1C6
100
AcDbEntity
  8
_0-1_
  6
CONTINUOUS
 62
     0
100
AcDbLine
 10
5488.005172414
 20
1473.205172414
 11
5274.905172414
 21
1320.905172414
  0
LINE
  5
1C7
100
AcDbEntity
  8
_0-1_
  6
CONTINUOUS
 62
     0
100
AcDbLine
 10
6642.205172414
 20
1362.105172414
 11
6718.205172414
 21
1362.105172414
  0
LINE
  5
1C8
100
AcDbEntity
  8
_0-1_
  6
CONTINUOUS
 62
     0
100
AcDbLine
 10
7169.905172414
 20
1362.105172414
 11
7286.605172414
 21
1362.105172414
  0
LINE
  5
1C9
100
AcDbEntity
  8
_0-1_
  6
CONTINUOUS
 62
     0
100
AcDbLine
 10
7153.405172414
 20
1433.305172414
 11
8164.605172414
 21
1433.305172414
  0
LINE
  5
1CA
100
AcDbEntity
  8
_0-1_
  6
CONTINUOUS
 62
     0
100
AcDbLine
 10
8019.505172414
 20
1433.305172414
 11
8059.305172414
 21
1314.705172414
  0
LINE
  5
1CB
100
AcDbEntity
  8
_0-1_
  6
CONTINUOUS
 62
     0
100
AcDbLine
 10
7271.305172414
 20
1147.105172414
 11
7598.305172414
 21
1147.105172414
  0
LINE
  5
1CC
100
AcDbEntity
  8
_0-1_
  6
CONTINUOUS
 62
     0
100
AcDbLine
 10
4814.205172414
 20
2179.305172414
 11
4814.205172414
 21
1560.305172414
  0
LINE
  5
1CD
100
AcDbEntity
  8
_0-1_
  6
CONTINUOUS
 62
     0
100
AcDbLine
 10
4403.105172414
 20
1560.305172414
 11
4814.205172414
 21
1560.305172414
  0
LINE
  5
1CE
100
AcDbEntity
  8
_0-1_
  6
CONTINUOUS
 62
     0
100
AcDbLine
 10
4131.305172414
 20
1430.605172414
 11
4059.305172414
 21
1340.405172414
  0
LINE
  5
1CF
100
AcDbEntity
  8
_0-1_
  6
CONTINUOUS
 62
     0
100
AcDbLine
 10
3421.505172414
 20
2249.105172414
 11
3421.505172414
 21
2279.005172414
  0
LINE
  5
1D0
100
AcDbEntity
  8
_0-1_
  6
CONTINUOUS
 62
     0
100
AcDbLine
 10
6532.505172414
 20
1220.805172414
 11
6642.205172414
 21
1362.105172414
  0
LINE
  5
1D1
100
AcDbEntity
  8
_0-1_
  6
CONTINUOUS
 62
     0
100
AcDbLine
 10
6734.605172414
 20
1433.305172414
 11
5432.105172414
 21
1433.305172414
  0
LINE
  5
1D2
100
AcDbEntity
  8
_0-1_
  6
CONTINUOUS
 62
     0
100
AcDbLine
 10
6593.205172414
 20
1429.105172414
 11
6435.105172414
 21
1209.205172414
  0
LINE
  5
1D3
100
AcDbEntity
  8
_0-1_
  6
CONTINUOUS
 62
     0
100
AcDbLine
 10
8116.905172414
 20
1473.205172414
 11
7070.505172414
 21
1473.205172414
  0
LINE
  5
1D4
100
AcDbEntity
  8
_0-1_
  6
CONTINUOUS
 62
     0
100
AcDbLine
 10
6817.505172414
 20
1473.205172414
 11
5014.405172414
 21
1473.205172414
  0
LINE
  5
1D5
100
AcDbEntity
  8
_0-1_
  6
CONTINUOUS
 62
     0
100
AcDbLine
 10
4017.304373703
 20
2727.244490277
 11
3616.007395741
 21
2221.035742965
  0
LINE
  5
1D6
100
AcDbEntity
  8
_0-1_
  6
CONTINUOUS
 62
     0
100
AcDbLine
 10
4118.105362185
 20
2764.390183299
 11
4091.454972546
 21
2762.063810808
  0
LINE
  5
1D7
100
AcDbEntity
  8
_0-1_
  6
CONTINUOUS
 62
     0
100
AcDbLine
 10
4091.454972546
 20
2762.063810808
 11
4065.623451093
 21
2755.256982208
  0
LINE
  5
1D8
100
AcDbEntity
  8
_0-1_
  6
CONTINUOUS
 62
     0
100
AcDbLine
 10
4065.623451093
 20
2755.256982208
 11
4041.395675534
 21
2744.176519539
  0
LINE
  5
1D9
100
AcDbEntity
  8
_0-1_
  6
CONTINUOUS
 62
     0
100
AcDbLine
 10
4041.395675534
 20
2744.176519539
 11
4019.507794568
 21
2729.159097055
  0
LINE
  5
1DA
100
AcDbEntity
  8
_0-1_
  6
CONTINUOUS
 62
     0
100
AcDbLine
 10
4019.507794568
 20
2729.159097055
 11
4017.247049995
 21
2727.263738418
  0
LINE
  5
1DB
100
AcDbEntity
  8
_0-1_
  6
CONTINUOUS
 62
     0
100
AcDbLine
 10
4033.625381868
 20
2661.064754549
 11
3691.046430501
 21
2223.314771595
  0
LINE
  5
1DC
100
AcDbEntity
  8
_0-1_
  6
CONTINUOUS
 62
     0
100
AcDbLine
 10
4033.575071122
 20
2661.076237108
 11
4038.450969862
 21
2665.551040354
  0
LINE
  5
1DD
100
AcDbEntity
  8
_0-1_
  6
CONTINUOUS
 62
     0
100
AcDbLine
 10
4038.450969862
 20
2665.551040354
 11
4042.456480542
 21
2670.784062275
  0
LINE
  5
1DE
100
AcDbEntity
  8
_0-1_
  6
CONTINUOUS
 62
     0
100
AcDbLine
 10
4042.456480542
 20
2670.784062275
 11
4045.469897747
 21
2676.616300148
  0
LINE
  5
1DF
100
AcDbEntity
  8
_0-1_
  6
CONTINUOUS
 62
     0
100
AcDbLine
 10
4045.469897747
 20
2676.616300148
 11
4047.39966032
 21
2682.870544377
  0
LINE
  5
1E0
100
AcDbEntity
  8
_0-1_
  6
CONTINUOUS
 62
     0
100
AcDbLine
 10
4047.39966032
 20
2682.870544377
 11
4048.187133402
 21
2689.356762916
  0
LINE
  5
1E1
100
AcDbEntity
  8
_0-1_
  6
CONTINUOUS
 62
     0
100
AcDbLine
 10
4048.187133402
 20
2689.356762916
 11
4047.808390021
 21
2695.877875296
  0
LINE
  5
1E2
100
AcDbEntity
  8
_0-1_
  6
CONTINUOUS
 62
     0
100
AcDbLine
 10
4047.808390021
 20
2695.877875296
 11
4046.274938104
 21
2702.235740817
  0
LINE
  5
1E3
100
AcDbEntity
  8
_0-1_
  6
CONTINUOUS
 62
     0
100
AcDbLine
 10
4046.274938104
 20
2702.235740817
 11
4043.633370811
 21
2708.237178954
  0
LINE
  5
1E4
100
AcDbEntity
  8
_0-1_
  6
CONTINUOUS
 62
     0
100
AcDbLine
 10
4043.633370811
 20
2708.237178954
 11
4039.963950828
 21
2713.699839045
  0
LINE
  5
1E5
100
AcDbEntity
  8
_0-1_
  6
CONTINUOUS
 62
     0
100
AcDbLine
 10
4039.963950828
 20
2713.699839045
 11
4035.378171623
 21
2718.457740927
  0
LINE
  5
1E6
100
AcDbEntity
  8
_0-1_
  6
CONTINUOUS
 62
     0
100
AcDbLine
 10
4035.378171623
 20
2718.457740927
 11
4030.015369778
 21
2722.36631816
  0
LINE
  5
1E7
100
AcDbEntity
  8
_0-1_
  6
CONTINUOUS
 62
     0
100
AcDbLine
 10
4030.015369778
 20
2722.36631816
 11
4024.038491313
 21
2725.306810602
  0
LINE
  5
1E8
100
AcDbEntity
  8
_0-1_
  6
CONTINUOUS
 62
     0
100
AcDbLine
 10
4024.038491313
 20
2725.306810602
 11
4017.629140656
 21
2727.189872877
  0
LINE
  5
1E9
100
AcDbEntity
  8
_0-1_
  6
CONTINUOUS
 62
     0
100
AcDbLine
 10
4017.629140656
 20
2727.189872877
 11
4017.250426765
 21
2727.264843523
  0
LINE
  5
1EA
100
AcDbEntity
  8
_0-1_
  6
CONTINUOUS
 62
     0
100
AcDbLine
 10
3627.755397832
 20
2172.772372867
 11
3651.279725379
 21
2185.460683612
  0
LINE
  5
1EB
100
AcDbEntity
  8
_0-1_
  6
CONTINUOUS
 62
     0
100
AcDbLine
 10
3651.279725379
 20
2185.460683612
 11
3672.188721189
 21
2201.942330974
  0
LINE
  5
1EC
100
AcDbEntity
  8
_0-1_
  6
CONTINUOUS
 62
     0
100
AcDbLine
 10
3672.188721189
 20
2201.942330974
 11
3689.847076007
 21
2221.71652844
  0
LINE
  5
1ED
100
AcDbEntity
  8
_0-1_
  6
CONTINUOUS
 62
     0
100
AcDbLine
 10
3689.847076007
 20
2221.71652844
 11
3691.019521931
 21
2223.308954357
  0
LINE
  5
1EE
100
AcDbEntity
  8
_0-1_
  6
CONTINUOUS
 62
     0
100
AcDbLine
 10
3532.644755937
 20
1984.136467596
 11
3552.392393357
 21
1991.019693667
  0
LINE
  5
1EF
100
AcDbEntity
  8
_0-1_
  6
CONTINUOUS
 62
     0
100
AcDbLine
 10
3552.392393357
 20
1991.019693667
 11
3570.615117465
 21
2001.144504025
  0
LINE
  5
1F0
100
AcDbEntity
  8
_0-1_
  6
CONTINUOUS
 62
     0
100
AcDbLine
 10
3570.615117465
 20
2001.144504025
 11
3586.75924001
 21
2014.20326143
  0
LINE
  5
1F1
100
AcDbEntity
  8
_0-1_
  6
CONTINUOUS
 62
     0
100
AcDbLine
 10
3586.75924001
 20
2014.20326143
 11
3600.334229997
 21
2029.799182145
  0
LINE
  5
1F2
100
AcDbEntity
  8
_0-1_
  6
CONTINUOUS
 62
     0
100
AcDbLine
 10
3600.334229997
 20
2029.799182145
 11
3610.449392664
 21
2046.484700224
  0
LINE
  5
1F3
100
AcDbEntity
  8
_0-1_
  6
CONTINUOUS
 62
     0
100
AcDbLine
 10
3552.763672959
 20
2127.93657008
 11
3527.507272098
 21
2069.769647169
  0
LINE
  5
1F4
100
AcDbEntity
  8
_0-1_
  6
CONTINUOUS
 62
     0
100
AcDbLine
 10
3527.507272098
 20
2069.769647169
 11
3512.985649161
 21
2008.206817249
  0
LINE
  5
1F5
100
AcDbEntity
  8
_0-1_
  6
CONTINUOUS
 62
     0
100
AcDbLine
 10
3512.985649161
 20
2008.206817249
 11
3509.640036312
 21
1945.118635754
  0
LINE
  5
1F6
100
AcDbEntity
  8
_0-1_
  6
CONTINUOUS
 62
     0
100
AcDbLine
 10
3509.640036312
 20
1945.118635754
 11
3509.712535318
 21
1943.263980334
  0
LINE
  5
1F7
100
AcDbEntity
  8
_0-1_
  6
CONTINUOUS
 62
     0
100
AcDbLine
 10
3509.705172414
 20
1526.305172414
 11
3509.857094884
 21
1524.610713535
  0
LINE
  5
1F8
100
AcDbEntity
  8
_0-1_
  6
CONTINUOUS
 62
     0
100
AcDbLine
 10
3509.857094884
 20
1524.610713535
 11
3510.308246206
 21
1522.967739931
  0
LINE
  5
1F9
100
AcDbEntity
  8
_0-1_
  6
CONTINUOUS
 62
     0
100
AcDbLine
 10
3510.308246206
 20
1522.967739931
 11
3511.044918376
 21
1521.426172525
  0
LINE
  5
1FA
100
AcDbEntity
  8
_0-1_
  6
CONTINUOUS
 62
     0
100
AcDbLine
 10
3511.044918376
 20
1521.426172525
 11
3512.044727983
 21
1520.032851061
  0
LINE
  5
1FB
100
AcDbEntity
  8
_0-1_
  6
CONTINUOUS
 62
     0
100
AcDbLine
 10
3512.044727983
 20
1520.032851061
 11
3513.277296317
 21
1518.830110908
  0
LINE
  5
1FC
100
AcDbEntity
  8
_0-1_
  6
CONTINUOUS
 62
     0
100
AcDbLine
 10
3513.277296317
 20
1518.830110908
 11
3514.705172414
 21
1517.854496716
  0
LINE
  5
1FD
100
AcDbEntity
  8
_0-1_
  6
CONTINUOUS
 62
     0
100
AcDbLine
 10
3514.705172414
 20
1517.854496716
 11
3516.284970981
 21
1517.135652029
  0
LINE
  5
1FE
100
AcDbEntity
  8
_0-1_
  6
CONTINUOUS
 62
     0
100
AcDbLine
 10
3516.284970981
 20
1517.135652029
 11
3517.968690637
 21
1516.695418579
  0
LINE
  5
1FF
100
AcDbEntity
  8
_0-1_
  6
CONTINUOUS
 62
     0
100
AcDbLine
 10
3517.968690637
 20
1516.695418579
 11
3519.705172414
 21
1516.547172636
  0
LINE
  5
200
100
AcDbEntity
  8
_0-1_
  6
CONTINUOUS
 62
     0
100
AcDbLine
 10
3535.605172414
 20
1516.563172192
 11
3533.868690637
 21
1516.414926249
  0
LINE
  5
201
100
AcDbEntity
  8
_0-1_
  6
CONTINUOUS
 62
     0
100
AcDbLine
 10
3533.868690637
 20
1516.414926249
 11
3532.184970981
 21
1515.974692799
  0
LINE
  5
202
100
AcDbEntity
  8
_0-1_
  6
CONTINUOUS
 62
     0
100
AcDbLine
 10
3532.184970981
 20
1515.974692799
 11
3530.605172414
 21
1515.255848111
  0
LINE
  5
203
100
AcDbEntity
  8
_0-1_
  6
CONTINUOUS
 62
     0
100
AcDbLine
 10
3530.605172414
 20
1515.255848111
 11
3529.177296317
 21
1514.28023392
  0
LINE
  5
204
100
AcDbEntity
  8
_0-1_
  6
CONTINUOUS
 62
     0
100
AcDbLine
 10
3529.177296317
 20
1514.28023392
 11
3527.944727983
 21
1513.077493766
  0
LINE
  5
205
100
AcDbEntity
  8
_0-1_
  6
CONTINUOUS
 62
     0
100
AcDbLine
 10
3527.944727983
 20
1513.077493766
 11
3526.944918376
 21
1511.684172303
  0
LINE
  5
206
100
AcDbEntity
  8
_0-1_
  6
CONTINUOUS
 62
     0
100
AcDbLine
 10
3526.944918376
 20
1511.684172303
 11
3526.208246206
 21
1510.142604896
  0
LINE
  5
207
100
AcDbEntity
  8
_0-1_
  6
CONTINUOUS
 62
     0
100
AcDbLine
 10
3526.208246206
 20
1510.142604896
 11
3525.757094884
 21
1508.499631293
  0
LINE
  5
208
100
AcDbEntity
  8
_0-1_
  6
CONTINUOUS
 62
     0
100
AcDbLine
 10
3525.757094884
 20
1508.499631293
 11
3525.605172414
 21
1506.805172414
  0
LINE
  5
209
100
AcDbEntity
  8
_0-1_
  6
CONTINUOUS
 62
     0
100
AcDbLine
 10
3525.605172414
 20
1374.705172414
 11
3525.909017354
 21
1371.316254656
  0
LINE
  5
20A
100
AcDbEntity
  8
_0-1_
  6
CONTINUOUS
 62
     0
100
AcDbLine
 10
3525.909017354
 20
1371.316254656
 11
3526.811319998
 21
1368.030307449
  0
LINE
  5
20B
100
AcDbEntity
  8
_0-1_
  6
CONTINUOUS
 62
     0
100
AcDbLine
 10
3526.811319998
 20
1368.030307449
 11
3528.284664338
 21
1364.947172636
  0
LINE
  5
20C
100
AcDbEntity
  8
_0-1_
  6
CONTINUOUS
 62
     0
100
AcDbLine
 10
3528.284664338
 20
1364.947172636
 11
3530.284283551
 21
1362.160529709
  0
LINE
  5
20D
100
AcDbEntity
  8
_0-1_
  6
CONTINUOUS
 62
     0
100
AcDbLine
 10
3530.284283551
 20
1362.160529709
 11
3532.74942022
 21
1359.755049402
  0
LINE
  5
20E
100
AcDbEntity
  8
_0-1_
  6
CONTINUOUS
 62
     0
100
AcDbLine
 10
3532.74942022
 20
1359.755049402
 11
3535.605172414
 21
1357.803821018
  0
LINE
  5
20F
100
AcDbEntity
  8
_0-1_
  6
CONTINUOUS
 62
     0
100
AcDbLine
 10
3535.605172414
 20
1357.803821018
 11
3538.764769547
 21
1356.366131644
  0
LINE
  5
210
100
AcDbEntity
  8
_0-1_
  6
CONTINUOUS
 62
     0
100
AcDbLine
 10
3538.764769547
 20
1356.366131644
 11
3542.13220886
 21
1355.485664744
  0
LINE
  5
211
100
AcDbEntity
  8
_0-1_
  6
CONTINUOUS
 62
     0
100
AcDbLine
 10
3542.13220886
 20
1355.485664744
 11
3545.605172414
 21
1355.189172858
  0
LINE
  5
212
100
AcDbEntity
  8
_0-1_
  6
CONTINUOUS
 62
     0
100
AcDbLine
 10
3502.598385855
 20
1340.197707592
 11
3497.419168031
 21
1339.378757255
  0
LINE
  5
213
100
AcDbEntity
  8
_0-1_
  6
CONTINUOUS
 62
     0
100
AcDbLine
 10
3497.419168031
 20
1339.378757255
 11
3492.464370213
 21
1337.694651451
  0
LINE
  5
214
100
AcDbEntity
  8
_0-1_
  6
CONTINUOUS
 62
     0
100
AcDbLine
 10
3492.464370213
 20
1337.694651451
 11
3487.884541425
 21
1335.196560882
  0
LINE
  5
215
100
AcDbEntity
  8
_0-1_
  6
CONTINUOUS
 62
     0
100
AcDbLine
 10
3487.884541425
 20
1335.196560882
 11
3483.818837447
 21
1331.960388767
  0
LINE
  5
216
100
AcDbEntity
  8
_0-1_
  6
CONTINUOUS
 62
     0
100
AcDbLine
 10
3483.818837447
 20
1331.960388767
 11
3480.390792637
 21
1328.084464557
  0
LINE
  5
217
100
AcDbEntity
  8
_0-1_
  6
CONTINUOUS
 62
     0
100
AcDbLine
 10
3480.390792637
 20
1328.084464557
 11
3477.704566403
 21
1323.686556249
  0
LINE
  5
218
100
AcDbEntity
  8
_0-1_
  6
CONTINUOUS
 62
     0
100
AcDbLine
 10
3477.704566403
 20
1323.686556249
 11
3475.841778369
 21
1318.900292061
  0
LINE
  5
219
100
AcDbEntity
  8
_0-1_
  6
CONTINUOUS
 62
     0
100
AcDbLine
 10
3475.841778369
 20
1318.900292061
 11
3474.859028406
 21
1313.871100208
  0
LINE
  5
21A
100
AcDbEntity
  8
_0-1_
  6
CONTINUOUS
 62
     0
100
AcDbLine
 10
3474.859028406
 20
1313.871100208
 11
3474.705172414
 21
1310.905172414
  0
LINE
  5
21B
100
AcDbEntity
  8
_0-1_
  6
CONTINUOUS
 62
     0
100
AcDbLine
 10
3474.705172414
 20
1147.505172414
 11
3474.857094884
 21
1145.810713535
  0
LINE
  5
21C
100
AcDbEntity
  8
_0-1_
  6
CONTINUOUS
 62
     0
100
AcDbLine
 10
3474.857094884
 20
1145.810713535
 11
3475.308246206
 21
1144.167739931
  0
LINE
  5
21D
100
AcDbEntity
  8
_0-1_
  6
CONTINUOUS
 62
     0
100
AcDbLine
 10
3475.308246206
 20
1144.167739931
 11
3476.044918376
 21
1142.626172525
  0
LINE
  5
21E
100
AcDbEntity
  8
_0-1_
  6
CONTINUOUS
 62
     0
100
AcDbLine
 10
3476.044918376
 20
1142.626172525
 11
3477.044727983
 21
1141.232851061
  0
LINE
  5
21F
100
AcDbEntity
  8
_0-1_
  6
CONTINUOUS
 62
     0
100
AcDbLine
 10
3477.044727983
 20
1141.232851061
 11
3478.277296317
 21
1140.030110908
  0
LINE
  5
220
100
AcDbEntity
  8
_0-1_
  6
CONTINUOUS
 62
     0
100
AcDbLine
 10
3478.277296317
 20
1140.030110908
 11
3479.705172414
 21
1139.054496716
  0
LINE
  5
221
100
AcDbEntity
  8
_0-1_
  6
CONTINUOUS
 62
     0
100
AcDbLine
 10
3479.705172414
 20
1139.054496716
 11
3481.284970981
 21
1138.335652029
  0
LINE
  5
222
100
AcDbEntity
  8
_0-1_
  6
CONTINUOUS
 62
     0
100
AcDbLine
 10
3481.284970981
 20
1138.335652029
 11
3482.968690637
 21
1137.895418579
  0
LINE
  5
223
100
AcDbEntity
  8
_0-1_
  6
CONTINUOUS
 62
     0
100
AcDbLine
 10
3482.968690637
 20
1137.895418579
 11
3484.705172414
 21
1137.747172636
  0
LINE
  5
224
100
AcDbEntity
  8
_0-1_
  6
CONTINUOUS
 62
     0
100
AcDbLine
 10
3759.256108742
 20
1191.523361247
 11
3760.10456413
 21
1188.223783254
  0
LINE
  5
225
100
AcDbEntity
  8
_0-1_
  6
CONTINUOUS
 62
     0
100
AcDbLine
 10
3760.10456413
 20
1188.223783254
 11
3761.527304937
 21
1185.118100542
  0
LINE
  5
226
100
AcDbEntity
  8
_0-1_
  6
CONTINUOUS
 62
     0
100
AcDbLine
 10
3761.527304937
 20
1185.118100542
 11
3763.481101903
 21
1182.300677708
  0
LINE
  5
227
100
AcDbEntity
  8
_0-1_
  6
CONTINUOUS
 62
     0
100
AcDbLine
 10
3763.481101903
 20
1182.300677708
 11
3765.906589896
 21
1179.857120719
  0
LINE
  5
228
100
AcDbEntity
  8
_0-1_
  6
CONTINUOUS
 62
     0
100
AcDbLine
 10
3765.906589896
 20
1179.857120719
 11
3768.730071691
 21
1177.861675817
  0
LINE
  5
229
100
AcDbEntity
  8
_0-1_
  6
CONTINUOUS
 62
     0
100
AcDbLine
 10
3768.730071691
 20
1177.861675817
 11
3771.865757221
 21
1176.374973588
  0
LINE
  5
22A
100
AcDbEntity
  8
_0-1_
  6
CONTINUOUS
 62
     0
100
AcDbLine
 10
3771.865757221
 20
1176.374973588
 11
3775.21837027
 21
1175.442186725
  0
LINE
  5
22B
100
AcDbEntity
  8
_0-1_
  6
CONTINUOUS
 62
     0
100
AcDbLine
 10
3775.21837027
 20
1175.442186725
 11
3778.686043385
 21
1175.091657485
  0
LINE
  5
22C
100
AcDbEntity
  8
_0-1_
  6
CONTINUOUS
 62
     0
100
AcDbLine
 10
3778.686043385
 20
1175.091657485
 11
3779.005172414
 21
1175.089172858
  0
LINE
  5
22D
100
AcDbEntity
  8
_0-1_
  6
CONTINUOUS
 62
     0
100
AcDbLine
 10
3753.549684518
 20
2158.979505522
 11
3726.125307595
 21
1950.3951822
  0
LINE
  5
22E
100
AcDbEntity
  8
_0-1_
  6
CONTINUOUS
 62
     0
100
AcDbLine
 10
4139.955330082
 20
2683.629669419
 11
3909.098641945
 21
2414.627999338
  0
LINE
  5
22F
100
AcDbEntity
  8
_0-1_
  6
CONTINUOUS
 62
     0
100
AcDbLine
 10
3909.098641945
 20
2414.627999338
 11
3753.462954383
 21
2158.924294307
  0
LINE
  5
230
100
AcDbEntity
  8
_0-1_
  6
CONTINUOUS
 62
     0
100
AcDbLine
 10
4141.156436618
 20
2646.43998633
 11
3835.001038207
 21
2221.085963924
  0
LINE
  5
231
100
AcDbEntity
  8
_0-1_
  6
CONTINUOUS
 62
     0
100
AcDbLine
 10
3834.905172414
 20
2026.905172414
 11
3835.362459048
 21
2021.804851188
  0
LINE
  5
232
100
AcDbEntity
  8
_0-1_
  6
CONTINUOUS
 62
     0
100
AcDbLine
 10
3835.362459048
 20
2021.804851188
 11
3836.720424528
 21
2016.859500641
  0
LINE
  5
233
100
AcDbEntity
  8
_0-1_
  6
CONTINUOUS
 62
     0
100
AcDbLine
 10
3836.720424528
 20
2016.859500641
 11
3838.93780776
 21
2012.219382748
  0
LINE
  5
234
100
AcDbEntity
  8
_0-1_
  6
CONTINUOUS
 62
     0
100
AcDbLine
 10
3838.93780776
 20
2012.219382748
 11
3841.947234676
 21
2008.025485143
  0
LINE
  5
235
100
AcDbEntity
  8
_0-1_
  6
CONTINUOUS
 62
     0
100
AcDbLine
 10
3841.947234676
 20
2008.025485143
 11
3845.657265362
 21
2004.405237282
  0
LINE
  5
236
100
AcDbEntity
  8
_0-1_
  6
CONTINUOUS
 62
     0
100
AcDbLine
 10
3845.657265362
 20
2004.405237282
 11
3849.955172414
 21
2001.468638564
  0
LINE
  5
237
100
AcDbEntity
  8
_0-1_
  6
CONTINUOUS
 62
     0
100
AcDbLine
 10
3849.955172414
 20
2001.468638564
 11
3854.7103661
 21
1999.304916055
  0
LINE
  5
238
100
AcDbEntity
  8
_0-1_
  6
CONTINUOUS
 62
     0
100
AcDbLine
 10
3854.7103661
 20
1999.304916055
 11
3859.778362266
 21
1997.97981337
  0
LINE
  5
239
100
AcDbEntity
  8
_0-1_
  6
CONTINUOUS
 62
     0
100
AcDbLine
 10
3859.778362266
 20
1997.97981337
 11
3865.005172414
 21
1997.533593083
  0
LINE
  5
23A
100
AcDbEntity
  8
_0-1_
  6
CONTINUOUS
 62
     0
100
AcDbLine
 10
4058.205172414
 20
1997.533593083
 11
4063.431982562
 21
1997.97981337
  0
LINE
  5
23B
100
AcDbEntity
  8
_0-1_
  6
CONTINUOUS
 62
     0
100
AcDbLine
 10
4063.431982562
 20
1997.97981337
 11
4068.499978728
 21
1999.304916055
  0
LINE
  5
23C
100
AcDbEntity
  8
_0-1_
  6
CONTINUOUS
 62
     0
100
AcDbLine
 10
4068.499978728
 20
1999.304916055
 11
4073.255172414
 21
2001.468638564
  0
LINE
  5
23D
100
AcDbEntity
  8
_0-1_
  6
CONTINUOUS
 62
     0
100
AcDbLine
 10
4073.255172414
 20
2001.468638564
 11
4077.553079465
 21
2004.405237282
  0
LINE
  5
23E
100
AcDbEntity
  8
_0-1_
  6
CONTINUOUS
 62
     0
100
AcDbLine
 10
4077.553079465
 20
2004.405237282
 11
4081.263110152
 21
2008.025485143
  0
LINE
  5
23F
100
AcDbEntity
  8
_0-1_
  6
CONTINUOUS
 62
     0
100
AcDbLine
 10
4081.263110152
 20
2008.025485143
 11
4084.272537068
 21
2012.219382748
  0
LINE
  5
240
100
AcDbEntity
  8
_0-1_
  6
CONTINUOUS
 62
     0
100
AcDbLine
 10
4084.272537068
 20
2012.219382748
 11
4084.644980899
 21
2012.867668983
  0
LINE
  5
241
100
AcDbEntity
  8
_0-1_
  6
CONTINUOUS
 62
     0
100
AcDbLine
 10
4211.605172414
 20
2208.676751745
 11
4206.378362266
 21
2208.230531457
  0
LINE
  5
242
100
AcDbEntity
  8
_0-1_
  6
CONTINUOUS
 62
     0
100
AcDbLine
 10
4206.378362266
 20
2208.230531457
 11
4201.3103661
 21
2206.905428772
  0
LINE
  5
243
100
AcDbEntity
  8
_0-1_
  6
CONTINUOUS
 62
     0
100
AcDbLine
 10
4201.3103661
 20
2206.905428772
 11
4196.555172414
 21
2204.741706264
  0
LINE
  5
244
100
AcDbEntity
  8
_0-1_
  6
CONTINUOUS
 62
     0
100
AcDbLine
 10
4196.555172414
 20
2204.741706264
 11
4192.257265362
 21
2201.805107546
  0
LINE
  5
245
100
AcDbEntity
  8
_0-1_
  6
CONTINUOUS
 62
     0
100
AcDbLine
 10
4192.257265362
 20
2201.805107546
 11
4188.547234676
 21
2198.184859685
  0
LINE
  5
246
100
AcDbEntity
  8
_0-1_
  6
CONTINUOUS
 62
     0
100
AcDbLine
 10
4188.547234676
 20
2198.184859685
 11
4185.53780776
 21
2193.990962079
  0
LINE
  5
247
100
AcDbEntity
  8
_0-1_
  6
CONTINUOUS
 62
     0
100
AcDbLine
 10
4185.53780776
 20
2193.990962079
 11
4185.16536776
 21
2193.342682715
  0
LINE
  5
248
100
AcDbEntity
  8
_0-1_
  6
CONTINUOUS
 62
     0
100
AcDbLine
 10
4814.305172414
 20
2179.305172414
 11
4813.847885779
 21
2184.40549364
  0
LINE
  5
249
100
AcDbEntity
  8
_0-1_
  6
CONTINUOUS
 62
     0
100
AcDbLine
 10
4813.847885779
 20
2184.40549364
 11
4812.489920299
 21
2189.350844186
  0
LINE
  5
24A
100
AcDbEntity
  8
_0-1_
  6
CONTINUOUS
 62
     0
100
AcDbLine
 10
4812.489920299
 20
2189.350844186
 11
4810.272537068
 21
2193.990962079
  0
LINE
  5
24B
100
AcDbEntity
  8
_0-1_
  6
CONTINUOUS
 62
     0
100
AcDbLine
 10
4810.272537068
 20
2193.990962079
 11
4807.263110152
 21
2198.184859685
  0
LINE
  5
24C
100
AcDbEntity
  8
_0-1_
  6
CONTINUOUS
 62
     0
100
AcDbLine
 10
4807.263110152
 20
2198.184859685
 11
4803.553079465
 21
2201.805107546
  0
LINE
  5
24D
100
AcDbEntity
  8
_0-1_
  6
CONTINUOUS
 62
     0
100
AcDbLine
 10
4803.553079465
 20
2201.805107546
 11
4799.255172414
 21
2204.741706264
  0
LINE
  5
24E
100
AcDbEntity
  8
_0-1_
  6
CONTINUOUS
 62
     0
100
AcDbLine
 10
4799.255172414
 20
2204.741706264
 11
4794.499978728
 21
2206.905428772
  0
LINE
  5
24F
100
AcDbEntity
  8
_0-1_
  6
CONTINUOUS
 62
     0
100
AcDbLine
 10
4794.499978728
 20
2206.905428772
 11
4789.431982562
 21
2208.230531457
  0
LINE
  5
250
100
AcDbEntity
  8
_0-1_
  6
CONTINUOUS
 62
     0
100
AcDbLine
 10
4789.431982562
 20
2208.230531457
 11
4784.205172414
 21
2208.676751745
  0
LINE
  5
251
100
AcDbEntity
  8
_0-1_
  6
CONTINUOUS
 62
     0
100
AcDbLine
 10
4596.805172414
 20
2006.876751745
 11
4591.578362266
 21
2006.430531457
  0
LINE
  5
252
100
AcDbEntity
  8
_0-1_
  6
CONTINUOUS
 62
     0
100
AcDbLine
 10
4591.578362266
 20
2006.430531457
 11
4586.5103661
 21
2005.105428772
  0
LINE
  5
253
100
AcDbEntity
  8
_0-1_
  6
CONTINUOUS
 62
     0
100
AcDbLine
 10
4586.5103661
 20
2005.105428772
 11
4581.755172414
 21
2002.941706264
  0
LINE
  5
254
100
AcDbEntity
  8
_0-1_
  6
CONTINUOUS
 62
     0
100
AcDbLine
 10
4581.755172414
 20
2002.941706264
 11
4577.457265362
 21
2000.005107546
  0
LINE
  5
255
100
AcDbEntity
  8
_0-1_
  6
CONTINUOUS
 62
     0
100
AcDbLine
 10
4577.457265362
 20
2000.005107546
 11
4573.747234676
 21
1996.384859685
  0
LINE
  5
256
100
AcDbEntity
  8
_0-1_
  6
CONTINUOUS
 62
     0
100
AcDbLine
 10
4573.747234676
 20
1996.384859685
 11
4570.73780776
 21
1992.190962079
  0
LINE
  5
257
100
AcDbEntity
  8
_0-1_
  6
CONTINUOUS
 62
     0
100
AcDbLine
 10
4570.73780776
 20
1992.190962079
 11
4568.520424528
 21
1987.550844186
  0
LINE
  5
258
100
AcDbEntity
  8
_0-1_
  6
CONTINUOUS
 62
     0
100
AcDbLine
 10
4568.520424528
 20
1987.550844186
 11
4567.162459048
 21
1982.60549364
  0
LINE
  5
259
100
AcDbEntity
  8
_0-1_
  6
CONTINUOUS
 62
     0
100
AcDbLine
 10
4567.162459048
 20
1982.60549364
 11
4566.705172414
 21
1977.505172414
  0
LINE
  5
25A
100
AcDbEntity
  8
_0-1_
  6
CONTINUOUS
 62
     0
100
AcDbLine
 10
4566.705172414
 20
1977.505172414
 11
4567.162459048
 21
1972.404851188
  0
LINE
  5
25B
100
AcDbEntity
  8
_0-1_
  6
CONTINUOUS
 62
     0
100
AcDbLine
 10
4567.162459048
 20
1972.404851188
 11
4568.283514657
 21
1968.118958625
  0
LINE
  5
25C
100
AcDbEntity
  8
_0-1_
  6
CONTINUOUS
 62
     0
100
AcDbLine
 10
4580.182981869
 20
1933.620500327
 11
4582.286344397
 21
1928.930106681
  0
LINE
  5
25D
100
AcDbEntity
  8
_0-1_
  6
CONTINUOUS
 62
     0
100
AcDbLine
 10
4582.286344397
 20
1928.930106681
 11
4585.192429646
 21
1924.667376786
  0
LINE
  5
25E
100
AcDbEntity
  8
_0-1_
  6
CONTINUOUS
 62
     0
100
AcDbLine
 10
4585.192429646
 20
1924.667376786
 11
4588.812937686
 21
1920.961831531
  0
LINE
  5
25F
100
AcDbEntity
  8
_0-1_
  6
CONTINUOUS
 62
     0
100
AcDbLine
 10
4588.812937686
 20
1920.961831531
 11
4593.037861213
 21
1917.926062034
  0
LINE
  5
260
100
AcDbEntity
  8
_0-1_
  6
CONTINUOUS
 62
     0
100
AcDbLine
 10
4593.037861213
 20
1917.926062034
 11
4597.738828062
 21
1915.652308615
  0
LINE
  5
261
100
AcDbEntity
  8
_0-1_
  6
CONTINUOUS
 62
     0
100
AcDbLine
 10
4597.738828062
 20
1915.652308615
 11
4602.773001735
 21
1914.209658122
  0
LINE
  5
262
100
AcDbEntity
  8
_0-1_
  6
CONTINUOUS
 62
     0
100
AcDbLine
 10
4602.773001735
 20
1914.209658122
 11
4607.987421412
 21
1913.641944759
  0
LINE
  5
263
100
AcDbEntity
  8
_0-1_
  6
CONTINUOUS
 62
     0
100
AcDbLine
 10
4607.987421412
 20
1913.641944759
 11
4608.705172414
 21
1913.633593083
  0
LINE
  5
264
100
AcDbEntity
  8
_0-1_
  6
CONTINUOUS
 62
     0
100
AcDbLine
 10
4741.605172414
 20
1913.633593083
 11
4746.831982562
 21
1914.07981337
  0
LINE
  5
265
100
AcDbEntity
  8
_0-1_
  6
CONTINUOUS
 62
     0
100
AcDbLine
 10
4746.831982562
 20
1914.07981337
 11
4751.899978728
 21
1915.404916055
  0
LINE
  5
266
100
AcDbEntity
  8
_0-1_
  6
CONTINUOUS
 62
     0
100
AcDbLine
 10
4751.899978728
 20
1915.404916055
 11
4756.655172414
 21
1917.568638564
  0
LINE
  5
267
100
AcDbEntity
  8
_0-1_
  6
CONTINUOUS
 62
     0
100
AcDbLine
 10
4756.655172414
 20
1917.568638564
 11
4760.953079465
 21
1920.505237282
  0
LINE
  5
268
100
AcDbEntity
  8
_0-1_
  6
CONTINUOUS
 62
     0
100
AcDbLine
 10
4760.953079465
 20
1920.505237282
 11
4764.663110152
 21
1924.125485143
  0
LINE
  5
269
100
AcDbEntity
  8
_0-1_
  6
CONTINUOUS
 62
     0
100
AcDbLine
 10
4764.663110152
 20
1924.125485143
 11
4767.672537068
 21
1928.319382748
  0
LINE
  5
26A
100
AcDbEntity
  8
_0-1_
  6
CONTINUOUS
 62
     0
100
AcDbLine
 10
4767.672537068
 20
1928.319382748
 11
4769.889920299
 21
1932.959500641
  0
LINE
  5
26B
100
AcDbEntity
  8
_0-1_
  6
CONTINUOUS
 62
     0
100
AcDbLine
 10
4769.889920299
 20
1932.959500641
 11
4771.247885779
 21
1937.904851188
  0
LINE
  5
26C
100
AcDbEntity
  8
_0-1_
  6
CONTINUOUS
 62
     0
100
AcDbLine
 10
4771.247885779
 20
1937.904851188
 11
4771.705172414
 21
1943.005172414
  0
LINE
  5
26D
100
AcDbEntity
  8
_0-1_
  6
CONTINUOUS
 62
     0
100
AcDbLine
 10
4771.705172414
 20
1943.005172414
 11
4771.247885779
 21
1948.10549364
  0
LINE
  5
26E
100
AcDbEntity
  8
_0-1_
  6
CONTINUOUS
 62
     0
100
AcDbLine
 10
4771.247885779
 20
1948.10549364
 11
4769.889920299
 21
1953.050844186
  0
LINE
  5
26F
100
AcDbEntity
  8
_0-1_
  6
CONTINUOUS
 62
     0
100
AcDbLine
 10
4769.889920299
 20
1953.050844186
 11
4769.859386303
 21
1953.132330796
  0
LINE
  5
270
100
AcDbEntity
  8
_0-1_
  6
CONTINUOUS
 62
     0
100
AcDbLine
 10
4756.859179004
 20
1987.632881479
 11
4754.627663881
 21
1992.266544055
  0
LINE
  5
271
100
AcDbEntity
  8
_0-1_
  6
CONTINUOUS
 62
     0
100
AcDbLine
 10
4754.627663881
 20
1992.266544055
 11
4751.605468523
 21
1996.451689823
  0
LINE
  5
272
100
AcDbEntity
  8
_0-1_
  6
CONTINUOUS
 62
     0
100
AcDbLine
 10
4751.605468523
 20
1996.451689823
 11
4747.884420806
 21
2000.061155248
  0
LINE
  5
273
100
AcDbEntity
  8
_0-1_
  6
CONTINUOUS
 62
     0
100
AcDbLine
 10
4747.884420806
 20
2000.061155248
 11
4743.577582883
 21
2002.985268548
  0
LINE
  5
274
100
AcDbEntity
  8
_0-1_
  6
CONTINUOUS
 62
     0
100
AcDbLine
 10
4743.577582883
 20
2002.985268548
 11
4738.815815844
 21
2005.13518202
  0
LINE
  5
275
100
AcDbEntity
  8
_0-1_
  6
CONTINUOUS
 62
     0
100
AcDbLine
 10
4738.815815844
 20
2005.13518202
 11
4733.743803571
 21
2006.445571632
  0
LINE
  5
276
100
AcDbEntity
  8
_0-1_
  6
CONTINUOUS
 62
     0
100
AcDbLine
 10
4733.743803571
 20
2006.445571632
 11
4728.605172414
 21
2006.876751745
  0
LINE
  5
277
100
AcDbEntity
  8
_0-1_
  6
CONTINUOUS
 62
     0
100
AcDbLine
 10
3422.005172414
 20
2557.650751078
 11
3411.568916936
 21
2556.759792963
  0
LINE
  5
278
100
AcDbEntity
  8
_0-1_
  6
CONTINUOUS
 62
     0
100
AcDbLine
 10
3411.568916936
 20
2556.759792963
 11
3401.4497618
 21
2554.113989927
  0
LINE
  5
279
100
AcDbEntity
  8
_0-1_
  6
CONTINUOUS
 62
     0
100
AcDbLine
 10
3401.4497618
 20
2554.113989927
 11
3391.955172414
 21
2549.793733357
  0
LINE
  5
27A
100
AcDbEntity
  8
_0-1_
  6
CONTINUOUS
 62
     0
100
AcDbLine
 10
3391.955172414
 20
2549.793733357
 11
3383.373637072
 21
2543.930292063
  0
LINE
  5
27B
100
AcDbEntity
  8
_0-1_
  6
CONTINUOUS
 62
     0
100
AcDbLine
 10
3383.373637072
 20
2543.930292063
 11
3375.965901382
 21
2536.701823742
  0
LINE
  5
27C
100
AcDbEntity
  8
_0-1_
  6
CONTINUOUS
 62
     0
100
AcDbLine
 10
3375.965901382
 20
2536.701823742
 11
3369.957045646
 21
2528.327961746
  0
LINE
  5
27D
100
AcDbEntity
  8
_0-1_
  6
CONTINUOUS
 62
     0
100
AcDbLine
 10
3369.957045646
 20
2528.327961746
 11
3365.529645905
 21
2519.063141634
  0
LINE
  5
27E
100
AcDbEntity
  8
_0-1_
  6
CONTINUOUS
 62
     0
100
AcDbLine
 10
3365.529645905
 20
2519.063141634
 11
3362.818226458
 21
2509.188870277
  0
LINE
  5
27F
100
AcDbEntity
  8
_0-1_
  6
CONTINUOUS
 62
     0
100
AcDbLine
 10
3362.818226458
 20
2509.188870277
 11
3361.905172414
 21
2499.005172414
  0
LINE
  5
280
100
AcDbEntity
  8
_0-1_
  6
CONTINUOUS
 62
     0
100
AcDbLine
 10
3468.405172414
 20
2528.405172414
 11
3467.947885779
 21
2533.50549364
  0
LINE
  5
281
100
AcDbEntity
  8
_0-1_
  6
CONTINUOUS
 62
     0
100
AcDbLine
 10
3467.947885779
 20
2533.50549364
 11
3466.589920299
 21
2538.450844186
  0
LINE
  5
282
100
AcDbEntity
  8
_0-1_
  6
CONTINUOUS
 62
     0
100
AcDbLine
 10
3466.589920299
 20
2538.450844186
 11
3464.372537068
 21
2543.090962079
  0
LINE
  5
283
100
AcDbEntity
  8
_0-1_
  6
CONTINUOUS
 62
     0
100
AcDbLine
 10
3464.372537068
 20
2543.090962079
 11
3461.363110152
 21
2547.284859685
  0
LINE
  5
284
100
AcDbEntity
  8
_0-1_
  6
CONTINUOUS
 62
     0
100
AcDbLine
 10
3461.363110152
 20
2547.284859685
 11
3457.653079465
 21
2550.905107546
  0
LINE
  5
285
100
AcDbEntity
  8
_0-1_
  6
CONTINUOUS
 62
     0
100
AcDbLine
 10
3457.653079465
 20
2550.905107546
 11
3453.355172414
 21
2553.841706264
  0
LINE
  5
286
100
AcDbEntity
  8
_0-1_
  6
CONTINUOUS
 62
     0
100
AcDbLine
 10
3453.355172414
 20
2553.841706264
 11
3448.599978728
 21
2556.005428772
  0
LINE
  5
287
100
AcDbEntity
  8
_0-1_
  6
CONTINUOUS
 62
     0
100
AcDbLine
 10
3448.599978728
 20
2556.005428772
 11
3443.531982562
 21
2557.330531457
  0
LINE
  5
288
100
AcDbEntity
  8
_0-1_
  6
CONTINUOUS
 62
     0
100
AcDbLine
 10
3443.531982562
 20
2557.330531457
 11
3438.305172414
 21
2557.776751745
  0
LINE
  5
289
100
AcDbEntity
  8
_0-1_
  6
CONTINUOUS
 62
     0
100
AcDbLine
 10
3468.105172414
 20
2528.405172414
 11
3467.647885779
 21
2533.50549364
  0
LINE
  5
28A
100
AcDbEntity
  8
_0-1_
  6
CONTINUOUS
 62
     0
100
AcDbLine
 10
3467.647885779
 20
2533.50549364
 11
3466.289920299
 21
2538.450844186
  0
LINE
  5
28B
100
AcDbEntity
  8
_0-1_
  6
CONTINUOUS
 62
     0
100
AcDbLine
 10
3466.289920299
 20
2538.450844186
 11
3464.072537068
 21
2543.090962079
  0
LINE
  5
28C
100
AcDbEntity
  8
_0-1_
  6
CONTINUOUS
 62
     0
100
AcDbLine
 10
3464.072537068
 20
2543.090962079
 11
3461.063110152
 21
2547.284859685
  0
LINE
  5
28D
100
AcDbEntity
  8
_0-1_
  6
CONTINUOUS
 62
     0
100
AcDbLine
 10
3461.063110152
 20
2547.284859685
 11
3457.353079465
 21
2550.905107546
  0
LINE
  5
28E
100
AcDbEntity
  8
_0-1_
  6
CONTINUOUS
 62
     0
100
AcDbLine
 10
3457.353079465
 20
2550.905107546
 11
3453.055172414
 21
2553.841706264
  0
LINE
  5
28F
100
AcDbEntity
  8
_0-1_
  6
CONTINUOUS
 62
     0
100
AcDbLine
 10
3453.055172414
 20
2553.841706264
 11
3448.299978728
 21
2556.005428772
  0
LINE
  5
290
100
AcDbEntity
  8
_0-1_
  6
CONTINUOUS
 62
     0
100
AcDbLine
 10
3448.299978728
 20
2556.005428772
 11
3443.231982562
 21
2557.330531457
  0
LINE
  5
291
100
AcDbEntity
  8
_0-1_
  6
CONTINUOUS
 62
     0
100
AcDbLine
 10
3443.231982562
 20
2557.330531457
 11
3438.005172414
 21
2557.776751745
  0
LINE
  5
292
100
AcDbEntity
  8
_0-1_
  6
CONTINUOUS
 62
     0
100
AcDbLine
 10
3387.405172414
 20
2221.705172414
 11
3387.862459048
 21
2216.604851188
  0
LINE
  5
293
100
AcDbEntity
  8
_0-1_
  6
CONTINUOUS
 62
     0
100
AcDbLine
 10
3387.862459048
 20
2216.604851188
 11
3389.220424528
 21
2211.659500641
  0
LINE
  5
294
100
AcDbEntity
  8
_0-1_
  6
CONTINUOUS
 62
     0
100
AcDbLine
 10
3389.220424528
 20
2211.659500641
 11
3391.43780776
 21
2207.019382748
  0
LINE
  5
295
100
AcDbEntity
  8
_0-1_
  6
CONTINUOUS
 62
     0
100
AcDbLine
 10
3391.43780776
 20
2207.019382748
 11
3394.447234676
 21
2202.825485143
  0
LINE
  5
296
100
AcDbEntity
  8
_0-1_
  6
CONTINUOUS
 62
     0
100
AcDbLine
 10
3394.447234676
 20
2202.825485143
 11
3398.157265362
 21
2199.205237282
  0
LINE
  5
297
100
AcDbEntity
  8
_0-1_
  6
CONTINUOUS
 62
     0
100
AcDbLine
 10
3398.157265362
 20
2199.205237282
 11
3402.455172414
 21
2196.268638564
  0
LINE
  5
298
100
AcDbEntity
  8
_0-1_
  6
CONTINUOUS
 62
     0
100
AcDbLine
 10
3402.455172414
 20
2196.268638564
 11
3407.2103661
 21
2194.104916055
  0
LINE
  5
299
100
AcDbEntity
  8
_0-1_
  6
CONTINUOUS
 62
     0
100
AcDbLine
 10
3407.2103661
 20
2194.104916055
 11
3412.278362266
 21
2192.77981337
  0
LINE
  5
29A
100
AcDbEntity
  8
_0-1_
  6
CONTINUOUS
 62
     0
100
AcDbLine
 10
3412.278362266
 20
2192.77981337
 11
3417.505172414
 21
2192.333593083
  0
LINE
  5
29B
100
AcDbEntity
  8
_0-1_
  6
CONTINUOUS
 62
     0
100
AcDbLine
 10
3421.505172414
 20
2249.105172414
 11
3421.962459048
 21
2244.004851188
  0
LINE
  5
29C
100
AcDbEntity
  8
_0-1_
  6
CONTINUOUS
 62
     0
100
AcDbLine
 10
3421.962459048
 20
2244.004851188
 11
3423.320424528
 21
2239.059500641
  0
LINE
  5
29D
100
AcDbEntity
  8
_0-1_
  6
CONTINUOUS
 62
     0
100
AcDbLine
 10
3423.320424528
 20
2239.059500641
 11
3425.53780776
 21
2234.419382748
  0
LINE
  5
29E
100
AcDbEntity
  8
_0-1_
  6
CONTINUOUS
 62
     0
100
AcDbLine
 10
3425.53780776
 20
2234.419382748
 11
3428.547234676
 21
2230.225485143
  0
LINE
  5
29F
100
AcDbEntity
  8
_0-1_
  6
CONTINUOUS
 62
     0
100
AcDbLine
 10
3428.547234676
 20
2230.225485143
 11
3432.257265362
 21
2226.605237282
  0
LINE
  5
2A0
100
AcDbEntity
  8
_0-1_
  6
CONTINUOUS
 62
     0
100
AcDbLine
 10
3432.257265362
 20
2226.605237282
 11
3436.555172414
 21
2223.668638564
  0
LINE
  5
2A1
100
AcDbEntity
  8
_0-1_
  6
CONTINUOUS
 62
     0
100
AcDbLine
 10
3436.555172414
 20
2223.668638564
 11
3441.3103661
 21
2221.504916055
  0
LINE
  5
2A2
100
AcDbEntity
  8
_0-1_
  6
CONTINUOUS
 62
     0
100
AcDbLine
 10
3441.3103661
 20
2221.504916055
 11
3446.378362266
 21
2220.17981337
  0
LINE
  5
2A3
100
AcDbEntity
  8
_0-1_
  6
CONTINUOUS
 62
     0
100
AcDbLine
 10
3446.378362266
 20
2220.17981337
 11
3451.605172414
 21
2219.733593083
  0
LINE
  5
2A4
100
AcDbEntity
  8
_0-1_
  6
CONTINUOUS
 62
     0
100
AcDbLine
 10
3620.281368886
 20
2195.316594135
 11
3618.956510274
 21
2200.270488064
  0
LINE
  5
2A5
100
AcDbEntity
  8
_0-1_
  6
CONTINUOUS
 62
     0
100
AcDbLine
 10
3618.956510274
 20
2200.270488064
 11
3616.770210608
 21
2204.924629369
  0
LINE
  5
2A6
100
AcDbEntity
  8
_0-1_
  6
CONTINUOUS
 62
     0
100
AcDbLine
 10
3616.770210608
 20
2204.924629369
 11
3613.788899496
 21
2209.137604322
  0
LINE
  5
2A7
100
AcDbEntity
  8
_0-1_
  6
CONTINUOUS
 62
     0
100
AcDbLine
 10
3613.788899496
 20
2209.137604322
 11
3610.103162569
 21
2212.78140381
  0
LINE
  5
2A8
100
AcDbEntity
  8
_0-1_
  6
CONTINUOUS
 62
     0
100
AcDbLine
 10
3610.103162569
 20
2212.78140381
 11
3605.824989077
 21
2215.745312831
  0
LINE
  5
2A9
100
AcDbEntity
  8
_0-1_
  6
CONTINUOUS
 62
     0
100
AcDbLine
 10
3605.824989077
 20
2215.745312831
 11
3601.084369158
 21
2217.939274507
  0
LINE
  5
2AA
100
AcDbEntity
  8
_0-1_
  6
CONTINUOUS
 62
     0
100
AcDbLine
 10
3601.084369158
 20
2217.939274507
 11
3596.025344148
 21
2219.296626424
  0
LINE
  5
2AB
100
AcDbEntity
  8
_0-1_
  6
CONTINUOUS
 62
     0
100
AcDbLine
 10
3596.025344148
 20
2219.296626424
 11
3590.801629962
 21
2219.776126131
  0
LINE
  5
2AC
100
AcDbEntity
  8
_0-1_
  6
CONTINUOUS
 62
     0
100
AcDbLine
 10
3590.801629962
 20
2219.776126131
 11
3590.605172414
 21
2219.776751745
  0
LINE
  5
2AD
100
AcDbEntity
  8
_0-1_
  6
CONTINUOUS
 62
     0
100
AcDbLine
 10
3588.381368886
 20
2167.916594135
 11
3587.056510274
 21
2172.870488064
  0
LINE
  5
2AE
100
AcDbEntity
  8
_0-1_
  6
CONTINUOUS
 62
     0
100
AcDbLine
 10
3587.056510274
 20
2172.870488064
 11
3584.870210608
 21
2177.524629369
  0
LINE
  5
2AF
100
AcDbEntity
  8
_0-1_
  6
CONTINUOUS
 62
     0
100
AcDbLine
 10
3584.870210608
 20
2177.524629369
 11
3581.888899496
 21
2181.737604322
  0
LINE
  5
2B0
100
AcDbEntity
  8
_0-1_
  6
CONTINUOUS
 62
     0
100
AcDbLine
 10
3581.888899496
 20
2181.737604322
 11
3578.203162569
 21
2185.38140381
  0
LINE
  5
2B1
100
AcDbEntity
  8
_0-1_
  6
CONTINUOUS
 62
     0
100
AcDbLine
 10
3578.203162569
 20
2185.38140381
 11
3573.924989077
 21
2188.345312831
  0
LINE
  5
2B2
100
AcDbEntity
  8
_0-1_
  6
CONTINUOUS
 62
     0
100
AcDbLine
 10
3573.924989077
 20
2188.345312831
 11
3569.184369158
 21
2190.539274507
  0
LINE
  5
2B3
100
AcDbEntity
  8
_0-1_
  6
CONTINUOUS
 62
     0
100
AcDbLine
 10
3569.184369158
 20
2190.539274507
 11
3564.125344148
 21
2191.896626424
  0
LINE
  5
2B4
100
AcDbEntity
  8
_0-1_
  6
CONTINUOUS
 62
     0
100
AcDbLine
 10
3564.125344148
 20
2191.896626424
 11
3558.901629962
 21
2192.376126131
  0
LINE
  5
2B5
100
AcDbEntity
  8
_0-1_
  6
CONTINUOUS
 62
     0
100
AcDbLine
 10
3558.901629962
 20
2192.376126131
 11
3558.705172414
 21
2192.376751745
  0
LINE
  5
2B6
100
AcDbEntity
  8
_0-1_
  6
CONTINUOUS
 62
     0
100
AcDbLine
 10
3461.613951174
 20
2183.612214955
 11
3463.873919172
 21
2178.991701593
  0
LINE
  5
2B7
100
AcDbEntity
  8
_0-1_
  6
CONTINUOUS
 62
     0
100
AcDbLine
 10
3463.873919172
 20
2178.991701593
 11
3466.921795178
 21
2174.824326495
  0
LINE
  5
2B8
100
AcDbEntity
  8
_0-1_
  6
CONTINUOUS
 62
     0
100
AcDbLine
 10
3466.921795178
 20
2174.824326495
 11
3470.664971022
 21
2171.236713245
  0
LINE
  5
2B9
100
AcDbEntity
  8
_0-1_
  6
CONTINUOUS
 62
     0
100
AcDbLine
 10
3470.664971022
 20
2171.236713245
 11
3474.989712199
 21
2168.337869656
  0
LINE
  5
2BA
100
AcDbEntity
  8
_0-1_
  6
CONTINUOUS
 62
     0
100
AcDbLine
 10
3474.989712199
 20
2168.337869656
 11
3479.764613639
 21
2166.215875623
  0
LINE
  5
2BB
100
AcDbEntity
  8
_0-1_
  6
CONTINUOUS
 62
     0
100
AcDbLine
 10
3479.764613639
 20
2166.215875623
 11
3484.844592376
 21
2164.935206862
  0
LINE
  5
2BC
100
AcDbEntity
  8
_0-1_
  6
CONTINUOUS
 62
     0
100
AcDbLine
 10
3484.844592376
 20
2164.935206862
 11
3488.881732641
 21
2164.547418673
  0
LINE
  5
2BD
100
AcDbEntity
  8
_0-1_
  6
CONTINUOUS
 62
     0
100
AcDbLine
 10
3429.109516723
 20
2151.944057833
 11
3431.226079427
 21
2147.259321742
  0
LINE
  5
2BE
100
AcDbEntity
  8
_0-1_
  6
CONTINUOUS
 62
     0
100
AcDbLine
 10
3431.226079427
 20
2147.259321742
 11
3434.144157524
 21
2143.004400166
  0
LINE
  5
2BF
100
AcDbEntity
  8
_0-1_
  6
CONTINUOUS
 62
     0
100
AcDbLine
 10
3434.144157524
 20
2143.004400166
 11
3437.775086685
 21
2139.308576743
  0
LINE
  5
2C0
100
AcDbEntity
  8
_0-1_
  6
CONTINUOUS
 62
     0
100
AcDbLine
 10
3437.775086685
 20
2139.308576743
 11
3442.008542968
 21
2136.284147199
  0
LINE
  5
2C1
100
AcDbEntity
  8
_0-1_
  6
CONTINUOUS
 62
     0
100
AcDbLine
 10
3442.008542968
 20
2136.284147199
 11
3446.715894943
 21
2134.023007294
  0
LINE
  5
2C2
100
AcDbEntity
  8
_0-1_
  6
CONTINUOUS
 62
     0
100
AcDbLine
 10
3446.715894943
 20
2134.023007294
 11
3451.754112105
 21
2132.59386062
  0
LINE
  5
2C3
100
AcDbEntity
  8
_0-1_
  6
CONTINUOUS
 62
     0
100
AcDbLine
 10
3451.754112105
 20
2132.59386062
 11
3456.681780715
 21
2132.047417233
  0
LINE
  5
2C4
100
AcDbEntity
  8
_0-1_
  6
CONTINUOUS
 62
     0
100
AcDbLine
 10
3361.88329573
 20
2300.399732805
 11
3350.883651558
 21
2292.331030877
  0
LINE
  5
2C5
100
AcDbEntity
  8
_0-1_
  6
CONTINUOUS
 62
     0
100
AcDbLine
 10
3350.883651558
 20
2292.331030877
 11
3340.717196422
 21
2282.994509855
  0
LINE
  5
2C6
100
AcDbEntity
  8
_0-1_
  6
CONTINUOUS
 62
     0
100
AcDbLine
 10
3340.717196422
 20
2282.994509855
 11
3331.692832916
 21
2272.673855204
  0
LINE
  5
2C7
100
AcDbEntity
  8
_0-1_
  6
CONTINUOUS
 62
     0
100
AcDbLine
 10
3331.692832916
 20
2272.673855204
 11
3324.084761759
 21
2261.682654794
  0
LINE
  5
2C8
100
AcDbEntity
  8
_0-1_
  6
CONTINUOUS
 62
     0
100
AcDbLine
 10
3324.084761759
 20
2261.682654794
 11
3318.124150342
 21
2250.354870687
  0
LINE
  5
2C9
100
AcDbEntity
  8
_0-1_
  6
CONTINUOUS
 62
     0
100
AcDbLine
 10
3318.124150342
 20
2250.354870687
 11
3313.992108828
 21
2239.034691872
  0
LINE
  5
2CA
100
AcDbEntity
  8
_0-1_
  6
CONTINUOUS
 62
     0
100
AcDbLine
 10
3313.992108828
 20
2239.034691872
 11
3311.814187207
 21
2228.066076253
  0
LINE
  5
2CB
100
AcDbEntity
  8
_0-1_
  6
CONTINUOUS
 62
     0
100
AcDbLine
 10
3311.814187207
 20
2228.066076253
 11
3311.656560526
 21
2217.782299665
  0
LINE
  5
2CC
100
AcDbEntity
  8
_0-1_
  6
CONTINUOUS
 62
     0
100
AcDbLine
 10
3311.656560526
 20
2217.782299665
 11
3313.524018191
 21
2208.495829457
  0
LINE
  5
2CD
100
AcDbEntity
  8
_0-1_
  6
CONTINUOUS
 62
     0
100
AcDbLine
 10
3313.524018191
 20
2208.495829457
 11
3317.359818446
 21
2200.488830326
  0
LINE
  5
2CE
100
AcDbEntity
  8
_0-1_
  6
CONTINUOUS
 62
     0
100
AcDbLine
 10
3317.359818446
 20
2200.488830326
 11
3323.047412441
 21
2194.004590889
  0
LINE
  5
2CF
100
AcDbEntity
  8
_0-1_
  6
CONTINUOUS
 62
     0
100
AcDbLine
 10
3323.047412441
 20
2194.004590889
 11
3330.413985512
 21
2189.240131481
  0
LINE
  5
2D0
100
AcDbEntity
  8
_0-1_
  6
CONTINUOUS
 62
     0
100
AcDbLine
 10
3330.413985512
 20
2189.240131481
 11
3339.235708063
 21
2186.340217789
  0
LINE
  5
2D1
100
AcDbEntity
  8
_0-1_
  6
CONTINUOUS
 62
     0
100
AcDbLine
 10
3339.235708063
 20
2186.340217789
 11
3349.244536517
 21
2185.392962224
  0
LINE
  5
2D2
100
AcDbEntity
  8
_0-1_
  6
CONTINUOUS
 62
     0
100
AcDbLine
 10
3349.244536517
 20
2185.392962224
 11
3360.136357688
 21
2186.427146667
  0
LINE
  5
2D3
100
AcDbEntity
  8
_0-1_
  6
CONTINUOUS
 62
     0
100
AcDbLine
 10
3360.136357688
 20
2186.427146667
 11
3371.580229101
 21
2189.411347946
  0
LINE
  5
2D4
100
AcDbEntity
  8
_0-1_
  6
CONTINUOUS
 62
     0
100
AcDbLine
 10
3371.580229101
 20
2189.411347946
 11
3383.228434513
 21
2194.254892616
  0
LINE
  5
2D5
100
AcDbEntity
  8
_0-1_
  6
CONTINUOUS
 62
     0
100
AcDbLine
 10
3383.228434513
 20
2194.254892616
 11
3394.727049098
 21
2200.810612023
  0
LINE
  5
2D6
100
AcDbEntity
  8
_0-1_
  6
CONTINUOUS
 62
     0
100
AcDbLine
 10
3394.727049098
 20
2200.810612023
 11
3395.743911774
 21
2201.479077592
  0
LINE
  5
2D7
100
AcDbEntity
  8
_0-1_
  6
CONTINUOUS
 62
     0
100
AcDbLine
 10
3427.889320062
 20
2230.941175072
 11
3435.981965215
 21
2245.408298892
  0
LINE
  5
2D8
100
AcDbEntity
  8
_0-1_
  6
CONTINUOUS
 62
     0
100
AcDbLine
 10
3435.981965215
 20
2245.408298892
 11
3441.377172442
 21
2261.026900036
  0
LINE
  5
2D9
100
AcDbEntity
  8
_0-1_
  6
CONTINUOUS
 62
     0
100
AcDbLine
 10
3441.377172442
 20
2261.026900036
 11
3443.911011102
 21
2277.322415214
  0
LINE
  5
2DA
100
AcDbEntity
  8
_0-1_
  6
CONTINUOUS
 62
     0
100
AcDbLine
 10
3443.911011102
 20
2277.322415214
 11
3444.002407949
 21
2278.95161779
  0
LINE
  5
2DB
100
AcDbEntity
  8
_0-1_
  6
CONTINUOUS
 62
     0
100
AcDbLine
 10
4403.105172414
 20
1526.18622551
 11
4349.152683613
 21
1521.580224069
  0
LINE
  5
2DC
100
AcDbEntity
  8
_0-1_
  6
CONTINUOUS
 62
     0
100
AcDbLine
 10
4349.152683613
 20
1521.580224069
 11
4296.839513883
 21
1507.90217077
  0
LINE
  5
2DD
100
AcDbEntity
  8
_0-1_
  6
CONTINUOUS
 62
     0
100
AcDbLine
 10
4296.839513883
 20
1507.90217077
 11
4247.755172414
 21
1485.567666341
  0
LINE
  5
2DE
100
AcDbEntity
  8
_0-1_
  6
CONTINUOUS
 62
     0
100
AcDbLine
 10
4247.755172414
 20
1485.567666341
 11
4203.391062084
 21
1455.255333397
  0
LINE
  5
2DF
100
AcDbEntity
  8
_0-1_
  6
CONTINUOUS
 62
     0
100
AcDbLine
 10
4203.391062084
 20
1455.255333397
 11
4165.095163937
 21
1417.886196836
  0
LINE
  5
2E0
100
AcDbEntity
  8
_0-1_
  6
CONTINUOUS
 62
     0
100
AcDbLine
 10
4165.095163937
 20
1417.886196836
 11
4158.017261338
 21
1409.345684396
  0
LINE
  5
2E1
100
AcDbEntity
  8
_0-1_
  6
CONTINUOUS
 62
     0
100
AcDbLine
 10
4088.003546952
 20
1321.694882482
 11
4012.189576269
 21
1137.774245408
  0
LINE
  5
2E2
100
AcDbEntity
  8
_0-1_
  6
CONTINUOUS
 62
     0
100
AcDbLine
 10
4889.005247561
 20
1162.591854157
 11
4848.604116599
 21
1303.83027403
  0
LINE
  5
2E3
100
AcDbEntity
  8
_0-1_
  6
CONTINUOUS
 62
     0
100
AcDbLine
 10
4848.604116599
 20
1303.83027403
 11
4783.682731079
 21
1436.077159435
  0
LINE
  5
2E4
100
AcDbEntity
  8
_0-1_
  6
CONTINUOUS
 62
     0
100
AcDbLine
 10
4783.682731079
 20
1436.077159435
 11
4720.667436061
 21
1526.174259185
  0
LINE
  5
2E5
100
AcDbEntity
  8
_0-1_
  6
CONTINUOUS
 62
     0
100
AcDbLine
 10
4956.862807847
 20
1162.66693694
 11
4853.00619034
 21
1405.502456605
  0
LINE
  5
2E6
100
AcDbEntity
  8
_0-1_
  6
CONTINUOUS
 62
     0
100
AcDbLine
 10
4853.00619034
 20
1405.502456605
 11
4780.684063786
 21
1526.236539783
  0
LINE
  5
2E7
100
AcDbEntity
  8
_0-1_
  6
CONTINUOUS
 62
     0
100
AcDbLine
 10
5014.469815422
 20
1507.26888064
 11
5029.233376698
 21
1508.676898696
  0
LINE
  5
2E8
100
AcDbEntity
  8
_0-1_
  6
CONTINUOUS
 62
     0
100
AcDbLine
 10
5029.233376698
 20
1508.676898696
 11
5043.522082895
 21
1512.565150543
  0
LINE
  5
2E9
100
AcDbEntity
  8
_0-1_
  6
CONTINUOUS
 62
     0
100
AcDbLine
 10
5043.522082895
 20
1512.565150543
 11
5056.901778906
 21
1518.815493616
  0
LINE
  5
2EA
100
AcDbEntity
  8
_0-1_
  6
CONTINUOUS
 62
     0
100
AcDbLine
 10
5056.901778906
 20
1518.815493616
 11
5068.965929437
 21
1527.238014404
  0
LINE
  5
2EB
100
AcDbEntity
  8
_0-1_
  6
CONTINUOUS
 62
     0
100
AcDbLine
 10
5068.965929437
 20
1527.238014404
 11
5079.347971381
 21
1537.576798874
  0
LINE
  5
2EC
100
AcDbEntity
  8
_0-1_
  6
CONTINUOUS
 62
     0
100
AcDbLine
 10
5079.347971381
 20
1537.576798874
 11
5087.732451645
 21
1549.517708293
  0
LINE
  5
2ED
100
AcDbEntity
  8
_0-1_
  6
CONTINUOUS
 62
     0
100
AcDbLine
 10
5087.732451645
 20
1549.517708293
 11
5093.86461204
 21
1562.697924169
  0
LINE
  5
2EE
100
AcDbEntity
  8
_0-1_
  6
CONTINUOUS
 62
     0
100
AcDbLine
 10
5093.86461204
 20
1562.697924169
 11
5094.033009544
 21
1563.168580046
  0
LINE
  5
2EF
100
AcDbEntity
  8
_0-1_
  6
CONTINUOUS
 62
     0
100
AcDbLine
 10
6508.505172414
 20
1209.133593083
 11
6513.731982562
 21
1209.57981337
  0
LINE
  5
2F0
100
AcDbEntity
  8
_0-1_
  6
CONTINUOUS
 62
     0
100
AcDbLine
 10
6513.731982562
 20
1209.57981337
 11
6518.799978728
 21
1210.904916055
  0
LINE
  5
2F1
100
AcDbEntity
  8
_0-1_
  6
CONTINUOUS
 62
     0
100
AcDbLine
 10
6518.799978728
 20
1210.904916055
 11
6523.555172414
 21
1213.068638564
  0
LINE
  5
2F2
100
AcDbEntity
  8
_0-1_
  6
CONTINUOUS
 62
     0
100
AcDbLine
 10
6523.555172414
 20
1213.068638564
 11
6527.853079465
 21
1216.005237282
  0
LINE
  5
2F3
100
AcDbEntity
  8
_0-1_
  6
CONTINUOUS
 62
     0
100
AcDbLine
 10
6527.853079465
 20
1216.005237282
 11
6531.563110152
 21
1219.625485143
  0
LINE
  5
2F4
100
AcDbEntity
  8
_0-1_
  6
CONTINUOUS
 62
     0
100
AcDbLine
 10
6531.563110152
 20
1219.625485143
 11
6532.497671532
 21
1220.768951218
  0
LINE
  5
2F5
100
AcDbEntity
  8
_0-1_
  6
CONTINUOUS
 62
     0
100
AcDbLine
 10
7383.539048161
 20
1220.791875396
 11
7386.788814832
 21
1216.772376315
  0
LINE
  5
2F6
100
AcDbEntity
  8
_0-1_
  6
CONTINUOUS
 62
     0
100
AcDbLine
 10
7386.788814832
 20
1216.772376315
 11
7390.704498937
 21
1213.364602056
  0
LINE
  5
2F7
100
AcDbEntity
  8
_0-1_
  6
CONTINUOUS
 62
     0
100
AcDbLine
 10
7390.704498937
 20
1213.364602056
 11
7395.167124397
 21
1210.672096115
  0
LINE
  5
2F8
100
AcDbEntity
  8
_0-1_
  6
CONTINUOUS
 62
     0
100
AcDbLine
 10
7395.167124397
 20
1210.672096115
 11
7400.041096596
 21
1208.776668923
  0
LINE
  5
2F9
100
AcDbEntity
  8
_0-1_
  6
CONTINUOUS
 62
     0
100
AcDbLine
 10
7400.041096596
 20
1208.776668923
 11
7405.178322354
 21
1207.735912075
  0
LINE
  5
2FA
100
AcDbEntity
  8
_0-1_
  6
CONTINUOUS
 62
     0
100
AcDbLine
 10
7405.178322354
 20
1207.735912075
 11
7408.705172414
 21
1207.533593083
  0
LINE
  5
2FB
100
AcDbEntity
  8
_0-1_
  6
CONTINUOUS
 62
     0
100
AcDbLine
 10
7658.405172414
 20
1331.850751078
 11
7647.968916936
 21
1330.959792963
  0
LINE
  5
2FC
100
AcDbEntity
  8
_0-1_
  6
CONTINUOUS
 62
     0
100
AcDbLine
 10
7647.968916936
 20
1330.959792963
 11
7637.8497618
 21
1328.313989927
  0
LINE
  5
2FD
100
AcDbEntity
  8
_0-1_
  6
CONTINUOUS
 62
     0
100
AcDbLine
 10
7637.8497618
 20
1328.313989927
 11
7628.355172414
 21
1323.993733357
  0
LINE
  5
2FE
100
AcDbEntity
  8
_0-1_
  6
CONTINUOUS
 62
     0
100
AcDbLine
 10
7628.355172414
 20
1323.993733357
 11
7619.773637072
 21
1318.130292063
  0
LINE
  5
2FF
100
AcDbEntity
  8
_0-1_
  6
CONTINUOUS
 62
     0
100
AcDbLine
 10
7619.773637072
 20
1318.130292063
 11
7612.365901382
 21
1310.901823742
  0
LINE
  5
300
100
AcDbEntity
  8
_0-1_
  6
CONTINUOUS
 62
     0
100
AcDbLine
 10
7612.365901382
 20
1310.901823742
 11
7606.357045646
 21
1302.527961746
  0
LINE
  5
301
100
AcDbEntity
  8
_0-1_
  6
CONTINUOUS
 62
     0
100
AcDbLine
 10
7606.357045646
 20
1302.527961746
 11
7601.929645905
 21
1293.263141634
  0
LINE
  5
302
100
AcDbEntity
  8
_0-1_
  6
CONTINUOUS
 62
     0
100
AcDbLine
 10
7601.929645905
 20
1293.263141634
 11
7599.218226458
 21
1283.388870277
  0
LINE
  5
303
100
AcDbEntity
  8
_0-1_
  6
CONTINUOUS
 62
     0
100
AcDbLine
 10
7599.218226458
 20
1283.388870277
 11
7598.305172414
 21
1273.205172414
  0
LINE
  5
304
100
AcDbEntity
  8
_0-1_
  6
CONTINUOUS
 62
     0
100
AcDbLine
 10
7980.105172414
 20
1273.205172414
 11
7979.19211837
 21
1283.388870277
  0
LINE
  5
305
100
AcDbEntity
  8
_0-1_
  6
CONTINUOUS
 62
     0
100
AcDbLine
 10
7979.19211837
 20
1283.388870277
 11
7976.480698923
 21
1293.263141634
  0
LINE
  5
306
100
AcDbEntity
  8
_0-1_
  6
CONTINUOUS
 62
     0
100
AcDbLine
 10
7976.480698923
 20
1293.263141634
 11
7972.053299181
 21
1302.527961746
  0
LINE
  5
307
100
AcDbEntity
  8
_0-1_
  6
CONTINUOUS
 62
     0
100
AcDbLine
 10
7972.053299181
 20
1302.527961746
 11
7966.044443445
 21
1310.901823742
  0
LINE
  5
308
100
AcDbEntity
  8
_0-1_
  6
CONTINUOUS
 62
     0
100
AcDbLine
 10
7966.044443445
 20
1310.901823742
 11
7958.636707756
 21
1318.130292063
  0
LINE
  5
309
100
AcDbEntity
  8
_0-1_
  6
CONTINUOUS
 62
     0
100
AcDbLine
 10
7958.636707756
 20
1318.130292063
 11
7950.055172414
 21
1323.993733357
  0
LINE
  5
30A
100
AcDbEntity
  8
_0-1_
  6
CONTINUOUS
 62
     0
100
AcDbLine
 10
7950.055172414
 20
1323.993733357
 11
7940.560583028
 21
1328.313989927
  0
LINE
  5
30B
100
AcDbEntity
  8
_0-1_
  6
CONTINUOUS
 62
     0
100
AcDbLine
 10
7940.560583028
 20
1328.313989927
 11
7930.441427892
 21
1330.959792963
  0
LINE
  5
30C
100
AcDbEntity
  8
_0-1_
  6
CONTINUOUS
 62
     0
100
AcDbLine
 10
7930.441427892
 20
1330.959792963
 11
7920.005172414
 21
1331.850751078
  0
CIRCLE
  5
30D
100
AcDbEntity
  8
_0-1_
  6
CONTINUOUS
 62
     0
100
AcDbCircle
 10
6944.005172414
 20
1104.705172414
 40
170
  0
CIRCLE
  5
30E
100
AcDbEntity
  8
_0-1_
  6
CONTINUOUS
 62
     0
100
AcDbCircle
 10
4424.005172414
 20
1104.705172414
 40
330
  0
CIRCLE
  5
30F
100
AcDbEntity
  8
_0-1_
  6
CONTINUOUS
 62
     0
100
AcDbCircle
 10
6944.005172414
 20
1104.705172414
 40
330
  0
LINE
  5
310
100
AcDbEntity
  8
_0-1_
  6
CONTINUOUS
 62
     0
100
AcDbLine
 10
4104.038221848
 20
1024.053613891
 11
4048.688708487
 21
1049.094471977
  0
LINE
  5
311
100
AcDbEntity
  8
_0-1_
  6
CONTINUOUS
 62
     0
100
AcDbLine
 10
4048.688708487
 20
1049.094471977
 11
3989.723940591
 21
1064.376155724
  0
LINE
  5
312
100
AcDbEntity
  8
_0-1_
  6
CONTINUOUS
 62
     0
100
AcDbLine
 10
3989.723940591
 20
1064.376155724
 11
3928.935532795
 21
1069.434338906
  0
LINE
  5
313
100
AcDbEntity
  8
_0-1_
  6
CONTINUOUS
 62
     0
100
AcDbLine
 10
3928.935532795
 20
1069.434338906
 11
3868.170510109
 21
1064.115331187
  0
LINE
  5
314
100
AcDbEntity
  8
_0-1_
  6
CONTINUOUS
 62
     0
100
AcDbLine
 10
3868.170510109
 20
1064.115331187
 11
3858.002526533
 21
1062.19141636
  0
CIRCLE
  5
315
100
AcDbEntity
  8
_0-1_
  6
CONTINUOUS
 62
     0
100
AcDbCircle
 10
4424.005172414
 20
1104.705172414
 40
170
  0
ARC
  5
316
100
AcDbEntity
  8
_0-1_
  6
CONTINUOUS
 62
     0
100
AcDbCircle
 10
8149.505172414
 20
1594.405172414
 40
93
100
AcDbArc
 50
-179.8653259277
 51
-110.5042114258
  0
ARC
  5
317
100
AcDbEntity
  8
_0-1_
  6
CONTINUOUS
 62
     0
100
AcDbCircle
 10
4797.205172414
 20
2664.405172414
 40
100
100
AcDbArc
 50
1.653305053711
 51
90
  0
LINE
  5
318
100
AcDbEntity
  8
_0-1_
  6
CONTINUOUS
 62
     0
100
AcDbLine
 10
3585.148394115
 20
2128.251405806
 11
3600.421644754
 21
2030.045154918
  0
ARC
  5
319
100
AcDbEntity
  8
_0-1_
  6
CONTINUOUS
 62
     0
100
AcDbCircle
 10
6944.005172414
 20
1104.705172414
 40
342.4
100
AcDbArc
 50
48.73341369629
 51
131.2665863037
  0
ARC
  5
31A
100
AcDbEntity
  8
_0-1_
  6
CONTINUOUS
 62
     0
100
AcDbCircle
 10
6944.005172414
 20
1104.705172414
 40
389.6
100
AcDbArc
 50
57.49438476562
 51
122.5056152344
  0
LINE
  5
31B
100
AcDbEntity
  8
_0-1_
  6
CONTINUOUS
 62
     0
100
AcDbLine
 10
4403.105172414
 20
1560.254053039
 11
4343.231280754
 21
1555.130484748
  0
LINE
  5
31C
100
AcDbEntity
  8
_0-1_
  6
CONTINUOUS
 62
     0
100
AcDbLine
 10
4343.231280754
 20
1555.130484748
 11
4285.176626995
 21
1539.915456905
  0
LINE
  5
31D
100
AcDbEntity
  8
_0-1_
  6
CONTINUOUS
 62
     0
100
AcDbLine
 10
4285.176626995
 20
1539.915456905
 11
4230.705172414
 21
1515.071270433
  0
LINE
  5
31E
100
AcDbEntity
  8
_0-1_
  6
CONTINUOUS
 62
     0
100
AcDbLine
 10
4230.705172414
 20
1515.071270433
 11
4181.472004594
 21
1481.352803364
  0
LINE
  5
31F
100
AcDbEntity
  8
_0-1_
  6
CONTINUOUS
 62
     0
100
AcDbLine
 10
4181.472004594
 20
1481.352803364
 11
4138.973048426
 21
1439.78457426
  0
LINE
  5
320
100
AcDbEntity
  8
_0-1_
  6
CONTINUOUS
 62
     0
100
AcDbLine
 10
4138.973048426
 20
1439.78457426
 11
4130.87695368
 21
1429.981017392
  0
LINE
  5
321
100
AcDbEntity
  8
_0-1_
  6
CONTINUOUS
 62
     0
100
AcDbLine
 10
4059.27472326
 20
1340.367664083
 11
3988.613865964
 21
1175.026114847
  0
ENDBLK
  5
322
100
AcDbEntity
 67
     1
  8
_0-1_
100
AcDbBlockEnd
  0
BLOCK
  5
323
100
AcDbEntity
  8
_0-2_
100
AcDbBlockBegin
  2
BK3
 70
    64
 10
0
 20
0
  3
BK3
  1

  0
LINE
  5
324
100
AcDbEntity
  8
_0-2_
  6
CONTINUOUS
 62
     0
100
AcDbLine
 10
3447.205172414
 20
3657.794827586
 11
3358.605172414
 21
3916.694827586
  0
LINE
  5
325
100
AcDbEntity
  8
_0-2_
  6
CONTINUOUS
 62
     0
100
AcDbLine
 10
3890.005172414
 20
3945.594827586
 11
4171.905172414
 21
4036.894827586
  0
LINE
  5
326
100
AcDbEntity
  8
_0-2_
  6
CONTINUOUS
 62
     0
100
AcDbLine
 10
4367.605172414
 20
3981.094827586
 11
4181.405172414
 21
3937.694827586
  0
LINE
  5
327
100
AcDbEntity
  8
_0-2_
  6
CONTINUOUS
 62
     0
100
AcDbLine
 10
5014.405172414
 20
3897.894827586
 11
8124.405172414
 21
3897.894827586
  0
LINE
  5
328
100
AcDbEntity
  8
_0-2_
  6
CONTINUOUS
 62
     0
100
AcDbLine
 10
3972.405172414
 20
3937.694827586
 11
4181.405172414
 21
3937.694827586
  0
LINE
  5
329
100
AcDbEntity
  8
_0-2_
  6
CONTINUOUS
 62
     0
100
AcDbLine
 10
4367.605172414
 20
3981.094827586
 11
4763.605172414
 21
3981.094827586
  0
LINE
  5
32A
100
AcDbEntity
  8
_0-2_
  6
CONTINUOUS
 62
     0
100
AcDbLine
 10
4763.605172414
 20
3981.094827586
 11
4798.805172414
 21
4036.894827586
  0
LINE
  5
32B
100
AcDbEntity
  8
_0-2_
  6
CONTINUOUS
 62
     0
100
AcDbLine
 10
4947.905172414
 20
4064.394827586
 11
5014.405172414
 21
4064.394827586
  0
LINE
  5
32C
100
AcDbEntity
  8
_0-2_
  6
CONTINUOUS
 62
     0
100
AcDbLine
 10
8164.605172414
 20
3945.094827586
 11
4947.905172414
 21
3945.094827586
  0
LINE
  5
32D
100
AcDbEntity
  8
_0-2_
  6
CONTINUOUS
 62
     0
100
AcDbLine
 10
8164.605172414
 20
5551.294827586
 11
8164.605172414
 21
3945.094827586
  0
LINE
  5
32E
100
AcDbEntity
  8
_0-2_
  6
CONTINUOUS
 62
     0
100
AcDbLine
 10
3719.605172414
 20
5521.194827586
 11
3756.305172414
 21
5657.494827586
  0
LINE
  5
32F
100
AcDbEntity
  8
_0-2_
  6
CONTINUOUS
 62
     0
100
AcDbLine
 10
3917.305172414
 20
5825.294827586
 11
3859.605172414
 21
5619.194827586
  0
LINE
  5
330
100
AcDbEntity
  8
_0-2_
  6
CONTINUOUS
 62
     0
100
AcDbLine
 10
3756.305172414
 20
5657.494827586
 11
3811.505172414
 21
5726.994827586
  0
LINE
  5
331
100
AcDbEntity
  8
_0-2_
  6
CONTINUOUS
 62
     0
100
AcDbLine
 10
3778.605172414
 20
5634.894827586
 11
3814.605172414
 21
5680.194827586
  0
LINE
  5
332
100
AcDbEntity
  8
_0-2_
  6
CONTINUOUS
 62
     0
100
AcDbLine
 10
3691.305172414
 20
4016.994827586
 11
3570.305172414
 21
3966.994827586
  0
LINE
  5
333
100
AcDbEntity
  8
_0-2_
  6
CONTINUOUS
 62
     0
100
AcDbLine
 10
3570.305172414
 20
3966.994827586
 11
3398.205172414
 21
3800.994827586
  0
LINE
  5
334
100
AcDbEntity
  8
_0-2_
  6
CONTINUOUS
 62
     0
100
AcDbLine
 10
3757.005172414
 20
3982.494827586
 11
3598.805172414
 21
3931.394827586
  0
LINE
  5
335
100
AcDbEntity
  8
_0-2_
  6
CONTINUOUS
 62
     0
100
AcDbLine
 10
3598.805172414
 20
3931.394827586
 11
3409.105172414
 21
3769.394827586
  0
LINE
  5
336
100
AcDbEntity
  8
_0-2_
  6
CONTINUOUS
 62
     0
100
AcDbLine
 10
3972.405172414
 20
3937.694827586
 11
3972.405172414
 21
3972.194827586
  0
LINE
  5
337
100
AcDbEntity
  8
_0-2_
  6
CONTINUOUS
 62
     0
100
AcDbLine
 10
4823.105172414
 20
3940.794827586
 11
4394.905172414
 21
3940.794827586
  0
LINE
  5
338
100
AcDbEntity
  8
_0-2_
  6
CONTINUOUS
 62
     0
100
AcDbLine
 10
4394.905172414
 20
3940.794827586
 11
4208.805172414
 21
3897.394827586
  0
LINE
  5
339
100
AcDbEntity
  8
_0-2_
  6
CONTINUOUS
 62
     0
100
AcDbLine
 10
4763.605172414
 20
3981.094827586
 11
4823.105172414
 21
3940.794827586
  0
LINE
  5
33A
100
AcDbEntity
  8
_0-2_
  6
CONTINUOUS
 62
     0
100
AcDbLine
 10
3890.005172414
 20
3897.894827586
 11
3890.005172414
 21
3945.594827586
  0
LINE
  5
33B
100
AcDbEntity
  8
_0-2_
  6
CONTINUOUS
 62
     0
100
AcDbLine
 10
4367.605172414
 20
5509.694827586
 11
4181.405172414
 21
5553.094827586
  0
LINE
  5
33C
100
AcDbEntity
  8
_0-2_
  6
CONTINUOUS
 62
     0
100
AcDbLine
 10
3972.405172414
 20
5553.094827586
 11
4181.405172414
 21
5553.094827586
  0
LINE
  5
33D
100
AcDbEntity
  8
_0-2_
  6
CONTINUOUS
 62
     0
100
AcDbLine
 10
4367.605172414
 20
5509.694827586
 11
4763.605172414
 21
5509.694827586
  0
LINE
  5
33E
100
AcDbEntity
  8
_0-2_
  6
CONTINUOUS
 62
     0
100
AcDbLine
 10
4763.605172414
 20
5509.694827586
 11
4798.805172414
 21
5453.894827586
  0
LINE
  5
33F
100
AcDbEntity
  8
_0-2_
  6
CONTINUOUS
 62
     0
100
AcDbLine
 10
4823.105172414
 20
5549.994827586
 11
4394.905172414
 21
5549.994827586
  0
LINE
  5
340
100
AcDbEntity
  8
_0-2_
  6
CONTINUOUS
 62
     0
100
AcDbLine
 10
4394.905172414
 20
5549.994827586
 11
4208.805172414
 21
5593.394827586
  0
LINE
  5
341
100
AcDbEntity
  8
_0-2_
  6
CONTINUOUS
 62
     0
100
AcDbLine
 10
4763.605172414
 20
5509.694827586
 11
4823.105172414
 21
5549.994827586
  0
LINE
  5
342
100
AcDbEntity
  8
_0-2_
  6
CONTINUOUS
 62
     0
100
AcDbLine
 10
4947.905172414
 20
3945.094827586
 11
4947.905172414
 21
5545.694827586
  0
LINE
  5
343
100
AcDbEntity
  8
_0-2_
  6
CONTINUOUS
 62
     0
100
AcDbLine
 10
8124.405172414
 20
5592.894827586
 11
8124.405172414
 21
3897.894827586
  0
LINE
  5
344
100
AcDbEntity
  8
_0-2_
  6
CONTINUOUS
 62
     0
100
AcDbLine
 10
5014.405172414
 20
5592.894827586
 11
5014.405172414
 21
3897.894827586
  0
LINE
  5
345
100
AcDbEntity
  8
_0-2_
  6
CONTINUOUS
 62
     0
100
AcDbLine
 10
5014.405172414
 20
5592.894827586
 11
8124.405172414
 21
5592.894827586
  0
LINE
  5
346
100
AcDbEntity
  8
_0-2_
  6
CONTINUOUS
 62
     0
100
AcDbLine
 10
4947.905172414
 20
5426.394827586
 11
5014.405172414
 21
5426.394827586
  0
LINE
  5
347
100
AcDbEntity
  8
_0-2_
  6
CONTINUOUS
 62
     0
100
AcDbLine
 10
8164.605172414
 20
5545.694827586
 11
4947.905172414
 21
5545.694827586
  0
LINE
  5
348
100
AcDbEntity
  8
_0-2_
  6
CONTINUOUS
 62
     0
100
AcDbLine
 10
3890.005172414
 20
5545.194827586
 11
4171.905172414
 21
5453.894827586
  0
LINE
  5
349
100
AcDbEntity
  8
_0-2_
  6
CONTINUOUS
 62
     0
100
AcDbLine
 10
3691.305172414
 20
5473.794827586
 11
3570.305172414
 21
5523.794827586
  0
LINE
  5
34A
100
AcDbEntity
  8
_0-2_
  6
CONTINUOUS
 62
     0
100
AcDbLine
 10
3972.405172414
 20
5553.094827586
 11
3972.405172414
 21
5518.594827586
  0
LINE
  5
34B
100
AcDbEntity
  8
_0-2_
  6
CONTINUOUS
 62
     0
100
AcDbLine
 10
3890.005172414
 20
5592.894827586
 11
3890.005172414
 21
5545.194827586
  0
LINE
  5
34C
100
AcDbEntity
  8
_0-2_
  6
CONTINUOUS
 62
     0
100
AcDbLine
 10
3757.005172414
 20
5508.294827586
 11
3603.105172414
 21
5557.994827586
  0
LINE
  5
34D
100
AcDbEntity
  8
_0-2_
  6
CONTINUOUS
 62
     0
100
AcDbLine
 10
3603.105172414
 20
5557.994827586
 11
3570.305172414
 21
5523.794827586
  0
LINE
  5
34E
100
AcDbEntity
  8
_0-2_
  6
CONTINUOUS
 62
     0
100
AcDbLine
 10
3738.905172414
 20
5592.894827586
 11
3695.605172414
 21
5592.894827586
  0
LINE
  5
34F
100
AcDbEntity
  8
_0-2_
  6
CONTINUOUS
 62
     0
100
AcDbLine
 10
4130.905172414
 20
5407.694827586
 11
3757.005172414
 21
5508.294827586
  0
LINE
  5
350
100
AcDbEntity
  8
_0-2_
  6
CONTINUOUS
 62
     0
100
AcDbLine
 10
4167.905172414
 20
5362.194827586
 11
4169.205172414
 21
5338.994827586
  0
LINE
  5
351
100
AcDbEntity
  8
_0-2_
  6
CONTINUOUS
 62
     0
100
AcDbLine
 10
4167.905172414
 20
4128.594827586
 11
4169.205172414
 21
4151.794827586
  0
LINE
  5
352
100
AcDbEntity
  8
_0-2_
  6
CONTINUOUS
 62
     0
100
AcDbLine
 10
4130.905172414
 20
4083.094827586
 11
3757.005172414
 21
3982.494827586
  0
LINE
  5
353
100
AcDbEntity
  8
_0-2_
  6
CONTINUOUS
 62
     0
100
AcDbLine
 10
3474.705172414
 20
4948.694827586
 11
3511.705172414
 21
4923.294827586
  0
LINE
  5
354
100
AcDbEntity
  8
_0-2_
  6
CONTINUOUS
 62
     0
100
AcDbLine
 10
3474.705172414
 20
4542.094827586
 11
3511.705172414
 21
4567.494827586
  0
LINE
  5
355
100
AcDbEntity
  8
_0-2_
  6
CONTINUOUS
 62
     0
100
AcDbLine
 10
4897.905172414
 20
5453.894827586
 11
4171.905172414
 21
5453.894827586
  0
LINE
  5
356
100
AcDbEntity
  8
_0-2_
  6
CONTINUOUS
 62
     0
100
AcDbLine
 10
4897.905172414
 20
4036.894827586
 11
4171.905172414
 21
4036.894827586
  0
LINE
  5
357
100
AcDbEntity
  8
_0-2_
  6
CONTINUOUS
 62
     0
100
AcDbLine
 10
4897.905172414
 20
5592.894827586
 11
3767.505172414
 21
5592.894827586
  0
LINE
  5
358
100
AcDbEntity
  8
_0-2_
  6
CONTINUOUS
 62
     0
100
AcDbLine
 10
4897.905172414
 20
3897.894827586
 11
3696.705172414
 21
3897.894827586
  0
LINE
  5
359
100
AcDbEntity
  8
_0-2_
  6
CONTINUOUS
 62
     0
100
AcDbLine
 10
4819.305172414
 20
4036.894827586
 11
4823.105172414
 21
3940.794827586
  0
LINE
  5
35A
100
AcDbEntity
  8
_0-2_
  6
CONTINUOUS
 62
     0
100
AcDbLine
 10
4819.305172414
 20
5453.894827586
 11
4823.105172414
 21
5549.994827586
  0
LINE
  5
35B
100
AcDbEntity
  8
_0-2_
  6
CONTINUOUS
 62
     0
100
AcDbLine
 10
3746.105172414
 20
5511.794827586
 11
3778.605172414
 21
5634.894827586
  0
LINE
  5
35C
100
AcDbEntity
  8
_0-2_
  6
CONTINUOUS
 62
     0
100
AcDbLine
 10
3917.247826775
 20
5825.242951483
 11
3894.783397056
 21
5819.332242816
  0
LINE
  5
35D
100
AcDbEntity
  8
_0-2_
  6
CONTINUOUS
 62
     0
100
AcDbLine
 10
3894.783397056
 20
5819.332242816
 11
3873.835815219
 21
5810.105449014
  0
LINE
  5
35E
100
AcDbEntity
  8
_0-2_
  6
CONTINUOUS
 62
     0
100
AcDbLine
 10
3873.835815219
 20
5810.105449014
 11
3855.041562939
 21
5797.842921537
  0
LINE
  5
35F
100
AcDbEntity
  8
_0-2_
  6
CONTINUOUS
 62
     0
100
AcDbLine
 10
3855.041562939
 20
5797.842921537
 11
3838.971694061
 21
5782.917251077
  0
LINE
  5
360
100
AcDbEntity
  8
_0-2_
  6
CONTINUOUS
 62
     0
100
AcDbLine
 10
3838.971694061
 20
5782.917251077
 11
3826.11448342
 21
5765.781946579
  0
LINE
  5
361
100
AcDbEntity
  8
_0-2_
  6
CONTINUOUS
 62
     0
100
AcDbLine
 10
3826.11448342
 20
5765.781946579
 11
3816.860590853
 21
5746.957655598
  0
LINE
  5
362
100
AcDbEntity
  8
_0-2_
  6
CONTINUOUS
 62
     0
100
AcDbLine
 10
3816.860590853
 20
5746.957655598
 11
3811.491191205
 21
5727.016344692
  0
LINE
  5
363
100
AcDbEntity
  8
_0-2_
  6
CONTINUOUS
 62
     0
100
AcDbLine
 10
3811.491191205
 20
5727.016344692
 11
3810.169430966
 21
5706.5639205
  0
LINE
  5
364
100
AcDbEntity
  8
_0-2_
  6
CONTINUOUS
 62
     0
100
AcDbLine
 10
3810.169430966
 20
5706.5639205
 11
3812.935471153
 21
5686.221819583
  0
LINE
  5
365
100
AcDbEntity
  8
_0-2_
  6
CONTINUOUS
 62
     0
100
AcDbLine
 10
3812.935471153
 20
5686.221819583
 11
3819.705267033
 21
5666.608126383
  0
LINE
  5
366
100
AcDbEntity
  8
_0-2_
  6
CONTINUOUS
 62
     0
100
AcDbLine
 10
3819.705267033
 20
5666.608126383
 11
3830.273121786
 21
5648.318793043
  0
LINE
  5
367
100
AcDbEntity
  8
_0-2_
  6
CONTINUOUS
 62
     0
100
AcDbLine
 10
3830.273121786
 20
5648.318793043
 11
3844.317936492
 21
5631.909531702
  0
LINE
  5
368
100
AcDbEntity
  8
_0-2_
  6
CONTINUOUS
 62
     0
100
AcDbLine
 10
3844.317936492
 20
5631.909531702
 11
3859.577155553
 21
5619.164447181
  0
LINE
  5
369
100
AcDbEntity
  8
_0-2_
  6
CONTINUOUS
 62
     0
100
AcDbLine
 10
3531.545141961
 20
4163.64219704
 11
3590.325428749
 21
4009.544973746
  0
LINE
  5
36A
100
AcDbEntity
  8
_0-2_
  6
CONTINUOUS
 62
     0
100
AcDbLine
 10
3590.325428749
 20
4009.544973746
 11
3603.800015485
 21
3983.487974955
  0
LINE
  5
36B
100
AcDbEntity
  8
_0-2_
  6
CONTINUOUS
 62
     0
100
AcDbLine
 10
3474.700075609
 20
4542.097360878
 11
3474.700075609
 21
4266.292294294
  0
LINE
  5
36C
100
AcDbEntity
  8
_0-2_
  6
CONTINUOUS
 62
     0
100
AcDbLine
 10
3474.64393416
 20
4266.289368965
 11
3477.750793426
 21
4182.095140374
  0
LINE
  5
36D
100
AcDbEntity
  8
_0-2_
  6
CONTINUOUS
 62
     0
100
AcDbLine
 10
3477.750793426
 20
4182.095140374
 11
3497.55558441
 21
4099.651049132
  0
LINE
  5
36E
100
AcDbEntity
  8
_0-2_
  6
CONTINUOUS
 62
     0
100
AcDbLine
 10
3497.55558441
 20
4099.651049132
 11
3533.456548558
 21
4021.462117233
  0
LINE
  5
36F
100
AcDbEntity
  8
_0-2_
  6
CONTINUOUS
 62
     0
100
AcDbLine
 10
3533.456548558
 20
4021.462117233
 11
3570.276199707
 21
3967.087945215
  0
LINE
  5
370
100
AcDbEntity
  8
_0-2_
  6
CONTINUOUS
 62
     0
100
AcDbLine
 10
3756.990459361
 20
3982.515550277
 11
3747.723163135
 21
3992.957814775
  0
LINE
  5
371
100
AcDbEntity
  8
_0-2_
  6
CONTINUOUS
 62
     0
100
AcDbLine
 10
3747.723163135
 20
3992.957814775
 11
3736.519828003
 21
4001.836402449
  0
LINE
  5
372
100
AcDbEntity
  8
_0-2_
  6
CONTINUOUS
 62
     0
100
AcDbLine
 10
3736.519828003
 20
4001.836402449
 11
3723.720861635
 21
4008.881541905
  0
LINE
  5
373
100
AcDbEntity
  8
_0-2_
  6
CONTINUOUS
 62
     0
100
AcDbLine
 10
3723.720861635
 20
4008.881541905
 11
3709.715154147
 21
4013.879170146
  0
LINE
  5
374
100
AcDbEntity
  8
_0-2_
  6
CONTINUOUS
 62
     0
100
AcDbLine
 10
3709.715154147
 20
4013.879170146
 11
3694.928261874
 21
4016.677436766
  0
LINE
  5
375
100
AcDbEntity
  8
_0-2_
  6
CONTINUOUS
 62
     0
100
AcDbLine
 10
3694.928261874
 20
4016.677436766
 11
3691.353410065
 21
4017.007848481
  0
LINE
  5
376
100
AcDbEntity
  8
_0-2_
  6
CONTINUOUS
 62
     0
100
AcDbLine
 10
3358.637568348
 20
3916.736558828
 11
3340.608992479
 21
3892.570683902
  0
LINE
  5
377
100
AcDbEntity
  8
_0-2_
  6
CONTINUOUS
 62
     0
100
AcDbLine
 10
3340.608992479
 20
3892.570683902
 11
3327.660587932
 21
3866.038590489
  0
LINE
  5
378
100
AcDbEntity
  8
_0-2_
  6
CONTINUOUS
 62
     0
100
AcDbLine
 10
3327.660587932
 20
3866.038590489
 11
3320.185785427
 21
3837.946442821
  0
LINE
  5
379
100
AcDbEntity
  8
_0-2_
  6
CONTINUOUS
 62
     0
100
AcDbLine
 10
3320.185785427
 20
3837.946442821
 11
3318.411703055
 21
3809.14780659
  0
LINE
  5
37A
100
AcDbEntity
  8
_0-2_
  6
CONTINUOUS
 62
     0
100
AcDbLine
 10
3318.411703055
 20
3809.14780659
 11
3322.392245412
 21
3780.517713785
  0
LINE
  5
37B
100
AcDbEntity
  8
_0-2_
  6
CONTINUOUS
 62
     0
100
AcDbLine
 10
3322.392245412
 20
3780.517713785
 11
3332.006465732
 21
3752.926075288
  0
LINE
  5
37C
100
AcDbEntity
  8
_0-2_
  6
CONTINUOUS
 62
     0
100
AcDbLine
 10
3332.006465732
 20
3752.926075288
 11
3346.962240797
 21
3727.211249074
  0
LINE
  5
37D
100
AcDbEntity
  8
_0-2_
  6
CONTINUOUS
 62
     0
100
AcDbLine
 10
3346.962240797
 20
3727.211249074
 11
3366.805146948
 21
3704.154567124
  0
LINE
  5
37E
100
AcDbEntity
  8
_0-2_
  6
CONTINUOUS
 62
     0
100
AcDbLine
 10
3366.805146948
 20
3704.154567124
 11
3390.932267524
 21
3684.456595052
  0
LINE
  5
37F
100
AcDbEntity
  8
_0-2_
  6
CONTINUOUS
 62
     0
100
AcDbLine
 10
3390.932267524
 20
3684.456595052
 11
3418.610512174
 21
3668.715845771
  0
LINE
  5
380
100
AcDbEntity
  8
_0-2_
  6
CONTINUOUS
 62
     0
100
AcDbLine
 10
3418.610512174
 20
3668.715845771
 11
3447.243756644
 21
3657.919119448
  0
LINE
  5
381
100
AcDbEntity
  8
_0-2_
  6
CONTINUOUS
 62
     0
100
AcDbLine
 10
3334.364569331
 20
3919.888878016
 11
3329.079125204
 21
3910.847281566
  0
LINE
  5
382
100
AcDbEntity
  8
_0-2_
  6
CONTINUOUS
 62
     0
100
AcDbLine
 10
3329.079125204
 20
3910.847281566
 11
3325.672234235
 21
3901.141709359
  0
LINE
  5
383
100
AcDbEntity
  8
_0-2_
  6
CONTINUOUS
 62
     0
100
AcDbLine
 10
3325.672234235
 20
3901.141709359
 11
3324.247413084
 21
3891.067060296
  0
LINE
  5
384
100
AcDbEntity
  8
_0-2_
  6
CONTINUOUS
 62
     0
100
AcDbLine
 10
3324.247413084
 20
3891.067060296
 11
3324.847954219
 21
3880.929447491
  0
LINE
  5
385
100
AcDbEntity
  8
_0-2_
  6
CONTINUOUS
 62
     0
100
AcDbLine
 10
3324.847954219
 20
3880.929447491
 11
3327.455610503
 21
3871.036897179
  0
LINE
  5
386
100
AcDbEntity
  8
_0-2_
  6
CONTINUOUS
 62
     0
100
AcDbLine
 10
3327.455610503
 20
3871.036897179
 11
3328.526413083
 21
3868.374498205
  0
LINE
  5
387
100
AcDbEntity
  8
_0-2_
  6
CONTINUOUS
 62
     0
100
AcDbLine
 10
3353.37455807
 20
3919.904338528
 11
3346.010122807
 21
3904.579276219
  0
LINE
  5
388
100
AcDbEntity
  8
_0-2_
  6
CONTINUOUS
 62
     0
100
AcDbLine
 10
3346.010122807
 20
3904.579276219
 11
3343.734054225
 21
3897.428403184
  0
LINE
  5
389
100
AcDbEntity
  8
_0-2_
  6
CONTINUOUS
 62
     0
100
AcDbLine
 10
3376.571332325
 20
3864.429362755
 11
3385.012973084
 21
3868.662860733
  0
LINE
  5
38A
100
AcDbEntity
  8
_0-2_
  6
CONTINUOUS
 62
     0
100
AcDbLine
 10
3385.012973084
 20
3868.662860733
 11
3392.229881717
 21
3874.495554391
  0
LINE
  5
38B
100
AcDbEntity
  8
_0-2_
  6
CONTINUOUS
 62
     0
100
AcDbLine
 10
3392.229881717
 20
3874.495554391
 11
3398.002776107
 21
3881.750220283
  0
LINE
  5
38C
100
AcDbEntity
  8
_0-2_
  6
CONTINUOUS
 62
     0
100
AcDbLine
 10
3398.002776107
 20
3881.750220283
 11
3402.156249778
 21
3890.206429058
  0
LINE
  5
38D
100
AcDbEntity
  8
_0-2_
  6
CONTINUOUS
 62
     0
100
AcDbLine
 10
3402.156249778
 20
3890.206429058
 11
3404.564101535
 21
3899.607243091
  0
LINE
  5
38E
100
AcDbEntity
  8
_0-2_
  6
CONTINUOUS
 62
     0
100
AcDbLine
 10
3404.564101535
 20
3899.607243091
 11
3405.153170021
 21
3909.667023404
  0
LINE
  5
38F
100
AcDbEntity
  8
_0-2_
  6
CONTINUOUS
 62
     0
100
AcDbLine
 10
3405.153170021
 20
3909.667023404
 11
3403.905556688
 21
3920.080108663
  0
LINE
  5
390
100
AcDbEntity
  8
_0-2_
  6
CONTINUOUS
 62
     0
100
AcDbLine
 10
3403.905556688
 20
3920.080108663
 11
3400.859169635
 21
3930.530102542
  0
LINE
  5
391
100
AcDbEntity
  8
_0-2_
  6
CONTINUOUS
 62
     0
100
AcDbLine
 10
3400.859169635
 20
3930.530102542
 11
3396.106571793
 21
3940.699487264
  0
LINE
  5
392
100
AcDbEntity
  8
_0-2_
  6
CONTINUOUS
 62
     0
100
AcDbLine
 10
3396.106571793
 20
3940.699487264
 11
3389.79216844
 21
3950.279271222
  0
LINE
  5
393
100
AcDbEntity
  8
_0-2_
  6
CONTINUOUS
 62
     0
100
AcDbLine
 10
3389.79216844
 20
3950.279271222
 11
3382.107819528
 21
3958.978377527
  0
LINE
  5
394
100
AcDbEntity
  8
_0-2_
  6
CONTINUOUS
 62
     0
100
AcDbLine
 10
3382.107819528
 20
3958.978377527
 11
3373.28701011
 21
3966.532488235
  0
LINE
  5
395
100
AcDbEntity
  8
_0-2_
  6
CONTINUOUS
 62
     0
100
AcDbLine
 10
3373.28701011
 20
3966.532488235
 11
3363.597756018
 21
3972.712075516
  0
LINE
  5
396
100
AcDbEntity
  8
_0-2_
  6
CONTINUOUS
 62
     0
100
AcDbLine
 10
3363.597756018
 20
3972.712075516
 11
3353.334460332
 21
3977.329375737
  0
LINE
  5
397
100
AcDbEntity
  8
_0-2_
  6
CONTINUOUS
 62
     0
100
AcDbLine
 10
3353.334460332
 20
3977.329375737
 11
3342.808968099
 21
3980.244094567
  0
LINE
  5
398
100
AcDbEntity
  8
_0-2_
  6
CONTINUOUS
 62
     0
100
AcDbLine
 10
3342.808968099
 20
3980.244094567
 11
3332.341091076
 21
3981.36766975
  0
LINE
  5
399
100
AcDbEntity
  8
_0-2_
  6
CONTINUOUS
 62
     0
100
AcDbLine
 10
3332.341091076
 20
3981.36766975
 11
3322.248890407
 21
3980.665962022
  0
LINE
  5
39A
100
AcDbEntity
  8
_0-2_
  6
CONTINUOUS
 62
     0
100
AcDbLine
 10
3322.248890407
 20
3980.665962022
 11
3312.839012503
 21
3978.160292417
  0
LINE
  5
39B
100
AcDbEntity
  8
_0-2_
  6
CONTINUOUS
 62
     0
100
AcDbLine
 10
3312.839012503
 20
3978.160292417
 11
3304.397371743
 21
3973.926794439
  0
LINE
  5
39C
100
AcDbEntity
  8
_0-2_
  6
CONTINUOUS
 62
     0
100
AcDbLine
 10
3304.397371743
 20
3973.926794439
 11
3297.18046311
 21
3968.094100781
  0
LINE
  5
39D
100
AcDbEntity
  8
_0-2_
  6
CONTINUOUS
 62
     0
100
AcDbLine
 10
3297.18046311
 20
3968.094100781
 11
3291.407568721
 21
3960.839434889
  0
LINE
  5
39E
100
AcDbEntity
  8
_0-2_
  6
CONTINUOUS
 62
     0
100
AcDbLine
 10
3291.407568721
 20
3960.839434889
 11
3287.254095049
 21
3952.383226114
  0
LINE
  5
39F
100
AcDbEntity
  8
_0-2_
  6
CONTINUOUS
 62
     0
100
AcDbLine
 10
3287.254095049
 20
3952.383226114
 11
3284.846243292
 21
3942.982412082
  0
LINE
  5
3A0
100
AcDbEntity
  8
_0-2_
  6
CONTINUOUS
 62
     0
100
AcDbLine
 10
3284.846243292
 20
3942.982412082
 11
3284.257174806
 21
3932.922631769
  0
LINE
  5
3A1
100
AcDbEntity
  8
_0-2_
  6
CONTINUOUS
 62
     0
100
AcDbLine
 10
3284.257174806
 20
3932.922631769
 11
3285.50478814
 21
3922.50954651
  0
LINE
  5
3A2
100
AcDbEntity
  8
_0-2_
  6
CONTINUOUS
 62
     0
100
AcDbLine
 10
3285.50478814
 20
3922.50954651
 11
3288.551175192
 21
3912.059552631
  0
LINE
  5
3A3
100
AcDbEntity
  8
_0-2_
  6
CONTINUOUS
 62
     0
100
AcDbLine
 10
3288.551175192
 20
3912.059552631
 11
3293.303773035
 21
3901.890167908
  0
LINE
  5
3A4
100
AcDbEntity
  8
_0-2_
  6
CONTINUOUS
 62
     0
100
AcDbLine
 10
3293.303773035
 20
3901.890167908
 11
3299.618176388
 21
3892.31038395
  0
LINE
  5
3A5
100
AcDbEntity
  8
_0-2_
  6
CONTINUOUS
 62
     0
100
AcDbLine
 10
3299.618176388
 20
3892.31038395
 11
3307.302525299
 21
3883.611277646
  0
LINE
  5
3A6
100
AcDbEntity
  8
_0-2_
  6
CONTINUOUS
 62
     0
100
AcDbLine
 10
3307.302525299
 20
3883.611277646
 11
3316.123334717
 21
3876.057166937
  0
LINE
  5
3A7
100
AcDbEntity
  8
_0-2_
  6
CONTINUOUS
 62
     0
100
AcDbLine
 10
3316.123334717
 20
3876.057166937
 11
3325.81258881
 21
3869.877579657
  0
LINE
  5
3A8
100
AcDbEntity
  8
_0-2_
  6
CONTINUOUS
 62
     0
100
AcDbLine
 10
3325.81258881
 20
3869.877579657
 11
3328.602182381
 21
3868.439619636
  0
LINE
  5
3A9
100
AcDbEntity
  8
_0-2_
  6
CONTINUOUS
 62
     0
100
AcDbLine
 10
3353.355871653
 20
3919.884954902
 11
3352.458487499
 21
3921.260215852
  0
LINE
  5
3AA
100
AcDbEntity
  8
_0-2_
  6
CONTINUOUS
 62
     0
100
AcDbLine
 10
3352.458487499
 20
3921.260215852
 11
3351.301215194
 21
3922.478529094
  0
LINE
  5
3AB
100
AcDbEntity
  8
_0-2_
  6
CONTINUOUS
 62
     0
100
AcDbLine
 10
3351.301215194
 20
3922.478529094
 11
3349.919217872
 21
3923.502876796
  0
LINE
  5
3AC
100
AcDbEntity
  8
_0-2_
  6
CONTINUOUS
 62
     0
100
AcDbLine
 10
3349.919217872
 20
3923.502876796
 11
3348.354486822
 21
3924.302134672
  0
LINE
  5
3AD
100
AcDbEntity
  8
_0-2_
  6
CONTINUOUS
 62
     0
100
AcDbLine
 10
3348.354486822
 20
3924.302134672
 11
3346.654565605
 21
3924.852017674
  0
LINE
  5
3AE
100
AcDbEntity
  8
_0-2_
  6
CONTINUOUS
 62
     0
100
AcDbLine
 10
3346.654565605
 20
3924.852017674
 11
3344.871105468
 21
3925.135817888
  0
LINE
  5
3AF
100
AcDbEntity
  8
_0-2_
  6
CONTINUOUS
 62
     0
100
AcDbLine
 10
3344.871105468
 20
3925.135817888
 11
3343.058295943
 21
3925.144912186
  0
LINE
  5
3B0
100
AcDbEntity
  8
_0-2_
  6
CONTINUOUS
 62
     0
100
AcDbLine
 10
3343.058295943
 20
3925.144912186
 11
3341.271218331
 21
3924.879024242
  0
LINE
  5
3B1
100
AcDbEntity
  8
_0-2_
  6
CONTINUOUS
 62
     0
100
AcDbLine
 10
3341.271218331
 20
3924.879024242
 11
3339.564172081
 21
3924.346232929
  0
LINE
  5
3B2
100
AcDbEntity
  8
_0-2_
  6
CONTINUOUS
 62
     0
100
AcDbLine
 10
3339.564172081
 20
3924.346232929
 11
3337.98902493
 21
3923.562726839
  0
LINE
  5
3B3
100
AcDbEntity
  8
_0-2_
  6
CONTINUOUS
 62
     0
100
AcDbLine
 10
3337.98902493
 20
3923.562726839
 11
3336.593636926
 21
3922.55231241
  0
LINE
  5
3B4
100
AcDbEntity
  8
_0-2_
  6
CONTINUOUS
 62
     0
100
AcDbLine
 10
3336.593636926
 20
3922.55231241
 11
3335.420406228
 21
3921.345690572
  0
LINE
  5
3B5
100
AcDbEntity
  8
_0-2_
  6
CONTINUOUS
 62
     0
100
AcDbLine
 10
3335.420406228
 20
3921.345690572
 11
3334.504980857
 21
3919.979523919
  0
LINE
  5
3B6
100
AcDbEntity
  8
_0-2_
  6
CONTINUOUS
 62
     0
100
AcDbLine
 10
3334.504980857
 20
3919.979523919
 11
3334.45481309
 21
3919.88560095
  0
LINE
  5
3B7
100
AcDbEntity
  8
_0-2_
  6
CONTINUOUS
 62
     0
100
AcDbLine
 10
3757.028078634
 20
3982.569221761
 11
3765.402881109
 21
3970.043434959
  0
LINE
  5
3B8
100
AcDbEntity
  8
_0-2_
  6
CONTINUOUS
 62
     0
100
AcDbLine
 10
3765.402881109
 20
3970.043434959
 11
3776.141666835
 21
3958.977665406
  0
LINE
  5
3B9
100
AcDbEntity
  8
_0-2_
  6
CONTINUOUS
 62
     0
100
AcDbLine
 10
3776.141666835
 20
3958.977665406
 11
3788.918143243
 21
3949.708140911
  0
LINE
  5
3BA
100
AcDbEntity
  8
_0-2_
  6
CONTINUOUS
 62
     0
100
AcDbLine
 10
3788.918143243
 20
3949.708140911
 11
3803.344103561
 21
3942.516511286
  0
LINE
  5
3BB
100
AcDbEntity
  8
_0-2_
  6
CONTINUOUS
 62
     0
100
AcDbLine
 10
3803.344103561
 20
3942.516511286
 11
3818.981222286
 21
3937.621290557
  0
LINE
  5
3BC
100
AcDbEntity
  8
_0-2_
  6
CONTINUOUS
 62
     0
100
AcDbLine
 10
3818.981222286
 20
3937.621290557
 11
3835.354373477
 21
3935.171217529
  0
LINE
  5
3BD
100
AcDbEntity
  8
_0-2_
  6
CONTINUOUS
 62
     0
100
AcDbLine
 10
3835.354373477
 20
3935.171217529
 11
3851.966067221
 21
3935.240736431
  0
LINE
  5
3BE
100
AcDbEntity
  8
_0-2_
  6
CONTINUOUS
 62
     0
100
AcDbLine
 10
3851.966067221
 20
3935.240736431
 11
3868.31156561
 21
3937.827734967
  0
LINE
  5
3BF
100
AcDbEntity
  8
_0-2_
  6
CONTINUOUS
 62
     0
100
AcDbLine
 10
3868.31156561
 20
3937.827734967
 11
3883.894218946
 21
3942.853608495
  0
LINE
  5
3C0
100
AcDbEntity
  8
_0-2_
  6
CONTINUOUS
 62
     0
100
AcDbLine
 10
3883.894218946
 20
3942.853608495
 11
3889.95233386
 21
3945.586552785
  0
LINE
  5
3C1
100
AcDbEntity
  8
_0-2_
  6
CONTINUOUS
 62
     0
100
AcDbLine
 10
3603.141919457
 20
3932.835423694
 11
3621.510805179
 21
3919.440495035
  0
LINE
  5
3C2
100
AcDbEntity
  8
_0-2_
  6
CONTINUOUS
 62
     0
100
AcDbLine
 10
3621.510805179
 20
3919.440495035
 11
3642.26470253
 21
3909.034013001
  0
LINE
  5
3C3
100
AcDbEntity
  8
_0-2_
  6
CONTINUOUS
 62
     0
100
AcDbLine
 10
3642.26470253
 20
3909.034013001
 11
3664.77301484
 21
3901.932173283
  0
LINE
  5
3C4
100
AcDbEntity
  8
_0-2_
  6
CONTINUOUS
 62
     0
100
AcDbLine
 10
3664.77301484
 20
3901.932173283
 11
3688.35183843
 21
3898.350761686
  0
LINE
  5
3C5
100
AcDbEntity
  8
_0-2_
  6
CONTINUOUS
 62
     0
100
AcDbLine
 10
3688.35183843
 20
3898.350761686
 11
3696.748834639
 21
3897.951919635
  0
LINE
  5
3C6
100
AcDbEntity
  8
_0-2_
  6
CONTINUOUS
 62
     0
100
AcDbLine
 10
3603.800015485
 20
5507.301680218
 11
3539.632622877
 21
5354.851504584
  0
LINE
  5
3C7
100
AcDbEntity
  8
_0-2_
  6
CONTINUOUS
 62
     0
100
AcDbLine
 10
3539.632622877
 20
5354.851504584
 11
3531.545141961
 21
5327.147458133
  0
LINE
  5
3C8
100
AcDbEntity
  8
_0-2_
  6
CONTINUOUS
 62
     0
100
AcDbLine
 10
3474.700075609
 20
5224.497360878
 11
3474.700075609
 21
4948.692294294
  0
LINE
  5
3C9
100
AcDbEntity
  8
_0-2_
  6
CONTINUOUS
 62
     0
100
AcDbLine
 10
3570.276199707
 20
5523.701709958
 11
3523.001550023
 21
5450.269021291
  0
LINE
  5
3CA
100
AcDbEntity
  8
_0-2_
  6
CONTINUOUS
 62
     0
100
AcDbLine
 10
3523.001550023
 20
5450.269021291
 11
3491.049910716
 21
5370.784525537
  0
LINE
  5
3CB
100
AcDbEntity
  8
_0-2_
  6
CONTINUOUS
 62
     0
100
AcDbLine
 10
3491.049910716
 20
5370.784525537
 11
3475.392116177
 21
5287.663318875
  0
LINE
  5
3CC
100
AcDbEntity
  8
_0-2_
  6
CONTINUOUS
 62
     0
100
AcDbLine
 10
3475.392116177
 20
5287.663318875
 11
3474.64393416
 21
5224.500286207
  0
LINE
  5
3CD
100
AcDbEntity
  8
_0-2_
  6
CONTINUOUS
 62
     0
100
AcDbLine
 10
3691.353433098
 20
5473.7818084
 11
3706.260349285
 21
5476.043106961
  0
LINE
  5
3CE
100
AcDbEntity
  8
_0-2_
  6
CONTINUOUS
 62
     0
100
AcDbLine
 10
3706.260349285
 20
5476.043106961
 11
3720.491053185
 21
5480.530121985
  0
LINE
  5
3CF
100
AcDbEntity
  8
_0-2_
  6
CONTINUOUS
 62
     0
100
AcDbLine
 10
3720.491053185
 20
5480.530121985
 11
3733.613152061
 21
5487.106517793
  0
LINE
  5
3D0
100
AcDbEntity
  8
_0-2_
  6
CONTINUOUS
 62
     0
100
AcDbLine
 10
3733.613152061
 20
5487.106517793
 11
3745.227937577
 21
5495.572473925
  0
LINE
  5
3D1
100
AcDbEntity
  8
_0-2_
  6
CONTINUOUS
 62
     0
100
AcDbLine
 10
3745.227937577
 20
5495.572473925
 11
3754.982500354
 21
5505.670756588
  0
LINE
  5
3D2
100
AcDbEntity
  8
_0-2_
  6
CONTINUOUS
 62
     0
100
AcDbLine
 10
3754.982500354
 20
5505.670756588
 11
3756.990446849
 21
5508.274087925
  0
LINE
  5
3D3
100
AcDbEntity
  8
_0-2_
  6
CONTINUOUS
 62
     0
100
AcDbLine
 10
3889.95233386
 20
5545.203102388
 11
3874.821191054
 21
5551.188979737
  0
LINE
  5
3D4
100
AcDbEntity
  8
_0-2_
  6
CONTINUOUS
 62
     0
100
AcDbLine
 10
3874.821191054
 20
5551.188979737
 11
3858.729411519
 21
5554.789851993
  0
LINE
  5
3D5
100
AcDbEntity
  8
_0-2_
  6
CONTINUOUS
 62
     0
100
AcDbLine
 10
3858.729411519
 20
5554.789851993
 11
3842.165935835
 21
5555.896308475
  0
LINE
  5
3D6
100
AcDbEntity
  8
_0-2_
  6
CONTINUOUS
 62
     0
100
AcDbLine
 10
3842.165935835
 20
5555.896308475
 11
3825.634036829
 21
5554.474730062
  0
LINE
  5
3D7
100
AcDbEntity
  8
_0-2_
  6
CONTINUOUS
 62
     0
100
AcDbLine
 10
3825.634036829
 20
5554.474730062
 11
3809.636027886
 21
5550.568310695
  0
LINE
  5
3D8
100
AcDbEntity
  8
_0-2_
  6
CONTINUOUS
 62
     0
100
AcDbLine
 10
3809.636027886
 20
5550.568310695
 11
3794.658000412
 21
5544.295744949
  0
LINE
  5
3D9
100
AcDbEntity
  8
_0-2_
  6
CONTINUOUS
 62
     0
100
AcDbLine
 10
3794.658000412
 20
5544.295744949
 11
3781.155054194
 21
5535.847621561
  0
LINE
  5
3DA
100
AcDbEntity
  8
_0-2_
  6
CONTINUOUS
 62
     0
100
AcDbLine
 10
3781.155054194
 20
5535.847621561
 11
3769.537469419
 21
5525.480632485
  0
LINE
  5
3DB
100
AcDbEntity
  8
_0-2_
  6
CONTINUOUS
 62
     0
100
AcDbLine
 10
3769.537469419
 20
5525.480632485
 11
3760.158240522
 21
5513.509773438
  0
LINE
  5
3DC
100
AcDbEntity
  8
_0-2_
  6
CONTINUOUS
 62
     0
100
AcDbLine
 10
3760.158240522
 20
5513.509773438
 11
3757.028078634
 21
5508.220433411
  0
LINE
  5
3DD
100
AcDbEntity
  8
_0-2_
  6
CONTINUOUS
 62
     0
100
AcDbLine
 10
3696.748834639
 20
5592.837735538
 11
3672.963117337
 21
5590.523351878
  0
LINE
  5
3DE
100
AcDbEntity
  8
_0-2_
  6
CONTINUOUS
 62
     0
100
AcDbLine
 10
3672.963117337
 20
5590.523351878
 11
3649.999059194
 21
5584.637923481
  0
LINE
  5
3DF
100
AcDbEntity
  8
_0-2_
  6
CONTINUOUS
 62
     0
100
AcDbLine
 10
3649.999059194
 20
5584.637923481
 11
3628.554411497
 21
5575.360276108
  0
LINE
  5
3E0
100
AcDbEntity
  8
_0-2_
  6
CONTINUOUS
 62
     0
100
AcDbLine
 10
3628.554411497
 20
5575.360276108
 11
3609.280759014
 21
5562.972306382
  0
LINE
  5
3E1
100
AcDbEntity
  8
_0-2_
  6
CONTINUOUS
 62
     0
100
AcDbLine
 10
3609.280759014
 20
5562.972306382
 11
3603.141919457
 21
5557.954231478
  0
ARC
  5
3E2
100
AcDbEntity
  8
_0-2_
  6
CONTINUOUS
 62
     0
100
AcDbCircle
 10
-2298.294827586
 20
4745.394827586
 40
6494.6
100
AcDbArc
 50
-5.243927001953
 51
5.243927001953
  0
ARC
  5
3E3
100
AcDbEntity
  8
_0-2_
  6
CONTINUOUS
 62
     0
100
AcDbCircle
 10
4118.005172414
 20
5359.394827586
 40
50
100
AcDbArc
 50
3.169601440429
 51
74.94587707519
  0
ARC
  5
3E4
100
AcDbEntity
  8
_0-2_
  6
CONTINUOUS
 62
     0
100
AcDbCircle
 10
4118.005172414
 20
4131.394827586
 40
50
100
AcDbArc
 50
-74.94586181641
 51
-3.169616699219
  0
ARC
  5
3E5
100
AcDbEntity
  8
_0-2_
  6
CONTINUOUS
 62
     0
100
AcDbCircle
 10
11286.90517241
 20
4745.394827586
 40
7777.2
100
AcDbArc
 50
175.7100524902
 51
184.2899475098
  0
ARC
  5
3E6
100
AcDbEntity
  8
_0-2_
  6
CONTINUOUS
 62
     0
100
AcDbCircle
 10
6305.705172414
 20
4745.394827586
 40
2713.9
100
AcDbArc
 50
164.4318847656
 51
195.5681152344
  0
ARC
  5
3E7
100
AcDbEntity
  8
_0-2_
  6
CONTINUOUS
 62
     0
100
AcDbCircle
 10
4897.905172414
 20
5542.894827586
 40
50
100
AcDbArc
 50
0
 51
90
  0
ARC
  5
3E8
100
AcDbEntity
  8
_0-2_
  6
CONTINUOUS
 62
     0
100
AcDbCircle
 10
4897.905172414
 20
5403.894827586
 40
50
100
AcDbArc
 50
0
 51
90
  0
ARC
  5
3E9
100
AcDbEntity
  8
_0-2_
  6
CONTINUOUS
 62
     0
100
AcDbCircle
 10
4897.905172414
 20
4086.894827586
 40
50
100
AcDbArc
 50
-90
 51
0
  0
ARC
  5
3EA
100
AcDbEntity
  8
_0-2_
  6
CONTINUOUS
 62
     0
100
AcDbCircle
 10
4897.905172414
 20
3947.894827586
 40
50
100
AcDbArc
 50
-90
 51
0
  0
ENDBLK
  5
3EB
100
AcDbEntity
 67
     1
  8
_0-2_
100
AcDbBlockEnd
  0
BLOCK
  5
3EC
100
AcDbEntity
  8
_0-1_
100
AcDbBlockBegin
  2
BK4
 70
    64
 10
0
 20
0
  3
BK4
  1

  0
LINE
  5
3ED
100
AcDbEntity
  8
_0-1_
  6
CONTINUOUS
 62
     0
100
AcDbLine
 10
1361.077586207
 20
1486.605172414
 11
1369.877586207
 21
1400.205172414
  0
LINE
  5
3EE
100
AcDbEntity
  8
_0-1_
  6
CONTINUOUS
 62
     0
100
AcDbLine
 10
1498.677586207
 20
1486.605172414
 11
1498.677586207
 21
1400.205172414
  0
LINE
  5
3EF
100
AcDbEntity
  8
_0-1_
  6
CONTINUOUS
 62
     0
100
AcDbLine
 10
772.3775862069
 20
1372.305172414
 11
2386.977586207
 21
1372.305172414
  0
LINE
  5
3F0
100
AcDbEntity
  8
_0-1_
  6
CONTINUOUS
 62
     0
100
AcDbLine
 10
783.5775862069
 20
1137.905172414
 11
2376.177586207
 21
1137.905172414
  0
LINE
  5
3F1
100
AcDbEntity
  8
_0-1_
  6
CONTINUOUS
 62
     0
100
AcDbLine
 10
755.7775862069
 20
1137.805172414
 11
755.7775862069
 21
993.0051724138
  0
LINE
  5
3F2
100
AcDbEntity
  8
_0-1_
  6
CONTINUOUS
 62
     0
100
AcDbLine
 10
1165.377586207
 20
1137.805172414
 11
1165.377586207
 21
1005.605172414
  0
LINE
  5
3F3
100
AcDbEntity
  8
_0-1_
  6
CONTINUOUS
 62
     0
100
AcDbLine
 10
1262.977586207
 20
1137.805172414
 11
1262.977586207
 21
1005.605172414
  0
LINE
  5
3F4
100
AcDbEntity
  8
_0-1_
  6
CONTINUOUS
 62
     0
100
AcDbLine
 10
794.9775862069
 20
2126.605172414
 11
833.1775862069
 21
2113.205172414
  0
LINE
  5
3F5
100
AcDbEntity
  8
_0-1_
  6
CONTINUOUS
 62
     0
100
AcDbLine
 10
833.1775862069
 20
2113.205172414
 11
820.3775862069
 21
2077.505172414
  0
LINE
  5
3F6
100
AcDbEntity
  8
_0-1_
  6
CONTINUOUS
 62
     0
100
AcDbLine
 10
804.3775862069
 20
2151.205172414
 11
804.3775862069
 21
2123.305172414
  0
LINE
  5
3F7
100
AcDbEntity
  8
_0-1_
  6
CONTINUOUS
 62
     0
100
AcDbLine
 10
823.7775862069
 20
2168.105172414
 11
823.7775862069
 21
2116.505172414
  0
LINE
  5
3F8
100
AcDbEntity
  8
_0-1_
  6
CONTINUOUS
 62
     0
100
AcDbLine
 10
794.9775862069
 20
2126.605172414
 11
791.0775862069
 21
2094.105172414
  0
LINE
  5
3F9
100
AcDbEntity
  8
_0-1_
  6
CONTINUOUS
 62
     0
100
AcDbLine
 10
926.4775862069
 20
2630.005172414
 11
1219.977586207
 21
2630.005172414
  0
LINE
  5
3FA
100
AcDbEntity
  8
_0-1_
  6
CONTINUOUS
 62
     0
100
AcDbLine
 10
857.6775862069
 20
2572.905172414
 11
786.2775862069
 21
2190.705172414
  0
LINE
  5
3FB
100
AcDbEntity
  8
_0-1_
  6
CONTINUOUS
 62
     0
100
AcDbLine
 10
953.6775862069
 20
2730.005172414
 11
1100.477586207
 21
2746.605172414
  0
LINE
  5
3FC
100
AcDbEntity
  8
_0-1_
  6
CONTINUOUS
 62
     0
100
AcDbLine
 10
831.8775862069
 20
2616.605172414
 11
753.0775862069
 21
2195.305172414
  0
LINE
  5
3FD
100
AcDbEntity
  8
_0-1_
  6
CONTINUOUS
 62
     0
100
AcDbLine
 10
811.1775862069
 20
1663.705172414
 11
811.1775862069
 21
1715.605172414
  0
LINE
  5
3FE
100
AcDbEntity
  8
_0-1_
  6
CONTINUOUS
 62
     0
100
AcDbLine
 10
791.1775862069
 20
1735.605172414
 11
732.4775862069
 21
1735.605172414
  0
LINE
  5
3FF
100
AcDbEntity
  8
_0-1_
  6
CONTINUOUS
 62
     0
100
AcDbLine
 10
791.1775862069
 20
1643.705172414
 11
734.3775862069
 21
1643.705172414
  0
LINE
  5
400
100
AcDbEntity
  8
_0-1_
  6
CONTINUOUS
 62
     0
100
AcDbLine
 10
624.2775862069
 20
2212.905172414
 11
806.4775862069
 21
2187.905172414
  0
LINE
  5
401
100
AcDbEntity
  8
_0-1_
  6
CONTINUOUS
 62
     0
100
AcDbLine
 10
604.8775862069
 20
2196.005172414
 11
787.0775862069
 21
2171.105172414
  0
LINE
  5
402
100
AcDbEntity
  8
_0-1_
  6
CONTINUOUS
 62
     0
100
AcDbLine
 10
606.9775862069
 20
2232.705172414
 11
606.9775862069
 21
2242.605172414
  0
LINE
  5
403
100
AcDbEntity
  8
_0-1_
  6
CONTINUOUS
 62
     0
100
AcDbLine
 10
587.5775862069
 20
2215.805172414
 11
587.5775862069
 21
2242.605172414
  0
LINE
  5
404
100
AcDbEntity
  8
_0-1_
  6
CONTINUOUS
 62
     0
100
AcDbLine
 10
581.8775862069
 20
2242.605172414
 11
644.3775862069
 21
2242.605172414
  0
LINE
  5
405
100
AcDbEntity
  8
_0-1_
  6
CONTINUOUS
 62
     0
100
AcDbLine
 10
684.3775862069
 20
2436.905172414
 11
684.3775862069
 21
2282.605172414
  0
LINE
  5
406
100
AcDbEntity
  8
_0-1_
  6
CONTINUOUS
 62
     0
100
AcDbLine
 10
581.8775862069
 20
2476.905172414
 11
644.3775862069
 21
2476.905172414
  0
LINE
  5
407
100
AcDbEntity
  8
_0-1_
  6
CONTINUOUS
 62
     0
100
AcDbLine
 10
541.8775862069
 20
2436.905172414
 11
541.8775862069
 21
2282.605172414
  0
LINE
  5
408
100
AcDbEntity
  8
_0-1_
  6
CONTINUOUS
 62
     0
100
AcDbLine
 10
843.8775862069
 20
1581.805172414
 11
2315.877586207
 21
1581.805172414
  0
LINE
  5
409
100
AcDbEntity
  8
_0-1_
  6
CONTINUOUS
 62
     0
100
AcDbLine
 10
1120.777586207
 20
1486.605172414
 11
2038.977586207
 21
1486.605172414
  0
LINE
  5
40A
100
AcDbEntity
  8
_0-1_
  6
CONTINUOUS
 62
     0
100
AcDbLine
 10
1234.577586207
 20
1416.805172414
 11
1198.477586207
 21
1486.605172414
  0
LINE
  5
40B
100
AcDbEntity
  8
_0-1_
  6
CONTINUOUS
 62
     0
100
AcDbLine
 10
1266.977586207
 20
1400.205172414
 11
1892.777586207
 21
1400.205172414
  0
LINE
  5
40C
100
AcDbEntity
  8
_0-1_
  6
CONTINUOUS
 62
     0
100
AcDbLine
 10
1355.577586207
 20
1215.005172414
 11
1269.577586207
 21
1215.005172414
  0
LINE
  5
40D
100
AcDbEntity
  8
_0-1_
  6
CONTINUOUS
 62
     0
100
AcDbLine
 10
1385.577586207
 20
1282.605172414
 11
1385.577586207
 21
1245.005172414
  0
LINE
  5
40E
100
AcDbEntity
  8
_0-1_
  6
CONTINUOUS
 62
     0
100
AcDbLine
 10
1259.577586207
 20
1302.605172414
 11
1365.577586207
 21
1302.605172414
  0
LINE
  5
40F
100
AcDbEntity
  8
_0-1_
  6
CONTINUOUS
 62
     0
100
AcDbLine
 10
1239.577586207
 20
1282.605172414
 11
1239.577586207
 21
1245.005172414
  0
LINE
  5
410
100
AcDbEntity
  8
_0-1_
  6
CONTINUOUS
 62
     0
100
AcDbLine
 10
1427.677586207
 20
1302.305172414
 11
1427.677586207
 21
1137.905172414
  0
LINE
  5
411
100
AcDbEntity
  8
_0-1_
  6
CONTINUOUS
 62
     0
100
AcDbLine
 10
1417.277586207
 20
1302.305172414
 11
1422.477586207
 21
1137.905172414
  0
LINE
  5
412
100
AcDbEntity
  8
_0-1_
  6
CONTINUOUS
 62
     0
100
AcDbLine
 10
791.4775862069
 20
834.7051724138
 11
791.4775862069
 21
1137.805172414
  0
LINE
  5
413
100
AcDbEntity
  8
_0-1_
  6
CONTINUOUS
 62
     0
100
AcDbLine
 10
907.6775862069
 20
774.7051724138
 11
851.4775862069
 21
774.7051724138
  0
LINE
  5
414
100
AcDbEntity
  8
_0-1_
  6
CONTINUOUS
 62
     0
100
AcDbLine
 10
967.6775862069
 20
834.7051724138
 11
967.6775862069
 21
1137.805172414
  0
LINE
  5
415
100
AcDbEntity
  8
_0-1_
  6
CONTINUOUS
 62
     0
100
AcDbLine
 10
1319.877586207
 20
1112.705172414
 11
1352.577586207
 21
1112.705172414
  0
LINE
  5
416
100
AcDbEntity
  8
_0-1_
  6
CONTINUOUS
 62
     0
100
AcDbLine
 10
1352.577586207
 20
1112.705172414
 11
1392.477586207
 21
1084.105172414
  0
LINE
  5
417
100
AcDbEntity
  8
_0-1_
  6
CONTINUOUS
 62
     0
100
AcDbLine
 10
1306.277586207
 20
1137.805172414
 11
1319.877586207
 21
1112.705172414
  0
LINE
  5
418
100
AcDbEntity
  8
_0-1_
  6
CONTINUOUS
 62
     0
100
AcDbLine
 10
1392.477586207
 20
1084.105172414
 11
1767.277586207
 21
1084.105172414
  0
LINE
  5
419
100
AcDbEntity
  8
_0-1_
  6
CONTINUOUS
 62
     0
100
AcDbLine
 10
1437.277586207
 20
1311.805172414
 11
1722.477586207
 21
1311.805172414
  0
LINE
  5
41A
100
AcDbEntity
  8
_0-1_
  6
CONTINUOUS
 62
     0
100
AcDbLine
 10
1437.277586207
 20
1322.305172414
 11
1722.477586207
 21
1322.305172414
  0
LINE
  5
41B
100
AcDbEntity
  8
_0-1_
  6
CONTINUOUS
 62
     0
100
AcDbLine
 10
1026.277586207
 20
1098.905172414
 11
967.6775862069
 21
1122.205172414
  0
LINE
  5
41C
100
AcDbEntity
  8
_0-1_
  6
CONTINUOUS
 62
     0
100
AcDbLine
 10
1003.477586207
 20
1057.705172414
 11
967.6775862069
 21
1070.905172414
  0
LINE
  5
41D
100
AcDbEntity
  8
_0-1_
  6
CONTINUOUS
 62
     0
100
AcDbLine
 10
1079.477586207
 20
972.4051724138
 11
1030.777586207
 21
1037.405172414
  0
LINE
  5
41E
100
AcDbEntity
  8
_0-1_
  6
CONTINUOUS
 62
     0
100
AcDbLine
 10
1127.477586207
 20
948.4051724138
 11
2032.277586207
 21
948.4051724138
  0
LINE
  5
41F
100
AcDbEntity
  8
_0-1_
  6
CONTINUOUS
 62
     0
100
AcDbLine
 10
1099.877586207
 20
1025.705172414
 11
1048.777586207
 21
1083.005172414
  0
LINE
  5
420
100
AcDbEntity
  8
_0-1_
  6
CONTINUOUS
 62
     0
100
AcDbLine
 10
1144.677586207
 20
1005.605172414
 11
2015.077586207
 21
1005.605172414
  0
LINE
  5
421
100
AcDbEntity
  8
_0-1_
  6
CONTINUOUS
 62
     0
100
AcDbLine
 10
1798.677586207
 20
1486.605172414
 11
1789.877586207
 21
1400.205172414
  0
LINE
  5
422
100
AcDbEntity
  8
_0-1_
  6
CONTINUOUS
 62
     0
100
AcDbLine
 10
1660.977586207
 20
1486.605172414
 11
1660.977586207
 21
1400.205172414
  0
LINE
  5
423
100
AcDbEntity
  8
_0-1_
  6
CONTINUOUS
 62
     0
100
AcDbLine
 10
2403.977586207
 20
1137.805172414
 11
2403.977586207
 21
993.0051724138
  0
LINE
  5
424
100
AcDbEntity
  8
_0-1_
  6
CONTINUOUS
 62
     0
100
AcDbLine
 10
1994.377586207
 20
1137.805172414
 11
1994.377586207
 21
1005.605172414
  0
LINE
  5
425
100
AcDbEntity
  8
_0-1_
  6
CONTINUOUS
 62
     0
100
AcDbLine
 10
1896.777586207
 20
1137.805172414
 11
1896.777586207
 21
1005.605172414
  0
LINE
  5
426
100
AcDbEntity
  8
_0-1_
  6
CONTINUOUS
 62
     0
100
AcDbLine
 10
2364.777586207
 20
2126.605172414
 11
2326.577586207
 21
2113.205172414
  0
LINE
  5
427
100
AcDbEntity
  8
_0-1_
  6
CONTINUOUS
 62
     0
100
AcDbLine
 10
2326.577586207
 20
2113.205172414
 11
2339.377586207
 21
2077.505172414
  0
LINE
  5
428
100
AcDbEntity
  8
_0-1_
  6
CONTINUOUS
 62
     0
100
AcDbLine
 10
2355.377586207
 20
2151.205172414
 11
2355.377586207
 21
2123.305172414
  0
LINE
  5
429
100
AcDbEntity
  8
_0-1_
  6
CONTINUOUS
 62
     0
100
AcDbLine
 10
2335.977586207
 20
2168.105172414
 11
2335.977586207
 21
2116.505172414
  0
LINE
  5
42A
100
AcDbEntity
  8
_0-1_
  6
CONTINUOUS
 62
     0
100
AcDbLine
 10
2364.777586207
 20
2126.605172414
 11
2368.677586207
 21
2094.105172414
  0
LINE
  5
42B
100
AcDbEntity
  8
_0-1_
  6
CONTINUOUS
 62
     0
100
AcDbLine
 10
2233.277586207
 20
2630.005172414
 11
1939.777586207
 21
2630.005172414
  0
LINE
  5
42C
100
AcDbEntity
  8
_0-1_
  6
CONTINUOUS
 62
     0
100
AcDbLine
 10
2302.077586207
 20
2572.905172414
 11
2373.477586207
 21
2190.705172414
  0
LINE
  5
42D
100
AcDbEntity
  8
_0-1_
  6
CONTINUOUS
 62
     0
100
AcDbLine
 10
2205.977586207
 20
2730.005172414
 11
2059.277586207
 21
2746.605172414
  0
LINE
  5
42E
100
AcDbEntity
  8
_0-1_
  6
CONTINUOUS
 62
     0
100
AcDbLine
 10
2327.877586207
 20
2616.605172414
 11
2406.577586207
 21
2195.305172414
  0
LINE
  5
42F
100
AcDbEntity
  8
_0-1_
  6
CONTINUOUS
 62
     0
100
AcDbLine
 10
2348.577586207
 20
1663.705172414
 11
2348.577586207
 21
1715.605172414
  0
LINE
  5
430
100
AcDbEntity
  8
_0-1_
  6
CONTINUOUS
 62
     0
100
AcDbLine
 10
2368.577586207
 20
1735.605172414
 11
2427.277586207
 21
1735.605172414
  0
LINE
  5
431
100
AcDbEntity
  8
_0-1_
  6
CONTINUOUS
 62
     0
100
AcDbLine
 10
2368.577586207
 20
1643.705172414
 11
2425.377586207
 21
1643.705172414
  0
LINE
  5
432
100
AcDbEntity
  8
_0-1_
  6
CONTINUOUS
 62
     0
100
AcDbLine
 10
2535.477586207
 20
2212.905172414
 11
2353.277586207
 21
2187.905172414
  0
LINE
  5
433
100
AcDbEntity
  8
_0-1_
  6
CONTINUOUS
 62
     0
100
AcDbLine
 10
2554.877586207
 20
2196.005172414
 11
2372.577586207
 21
2171.105172414
  0
LINE
  5
434
100
AcDbEntity
  8
_0-1_
  6
CONTINUOUS
 62
     0
100
AcDbLine
 10
2552.777586207
 20
2232.705172414
 11
2552.777586207
 21
2242.605172414
  0
LINE
  5
435
100
AcDbEntity
  8
_0-1_
  6
CONTINUOUS
 62
     0
100
AcDbLine
 10
2572.177586207
 20
2215.805172414
 11
2572.177586207
 21
2242.605172414
  0
LINE
  5
436
100
AcDbEntity
  8
_0-1_
  6
CONTINUOUS
 62
     0
100
AcDbLine
 10
2577.877586207
 20
2242.605172414
 11
2515.377586207
 21
2242.605172414
  0
LINE
  5
437
100
AcDbEntity
  8
_0-1_
  6
CONTINUOUS
 62
     0
100
AcDbLine
 10
2475.377586207
 20
2436.905172414
 11
2475.377586207
 21
2282.605172414
  0
LINE
  5
438
100
AcDbEntity
  8
_0-1_
  6
CONTINUOUS
 62
     0
100
AcDbLine
 10
2577.877586207
 20
2476.905172414
 11
2515.377586207
 21
2476.905172414
  0
LINE
  5
439
100
AcDbEntity
  8
_0-1_
  6
CONTINUOUS
 62
     0
100
AcDbLine
 10
2617.877586207
 20
2436.905172414
 11
2617.877586207
 21
2282.605172414
  0
LINE
  5
43A
100
AcDbEntity
  8
_0-1_
  6
CONTINUOUS
 62
     0
100
AcDbLine
 10
1925.177586207
 20
1416.805172414
 11
1961.277586207
 21
1486.605172414
  0
LINE
  5
43B
100
AcDbEntity
  8
_0-1_
  6
CONTINUOUS
 62
     0
100
AcDbLine
 10
1804.177586207
 20
1215.005172414
 11
1890.177586207
 21
1215.005172414
  0
LINE
  5
43C
100
AcDbEntity
  8
_0-1_
  6
CONTINUOUS
 62
     0
100
AcDbLine
 10
1774.177586207
 20
1282.605172414
 11
1774.177586207
 21
1245.005172414
  0
LINE
  5
43D
100
AcDbEntity
  8
_0-1_
  6
CONTINUOUS
 62
     0
100
AcDbLine
 10
1900.177586207
 20
1302.605172414
 11
1794.177586207
 21
1302.605172414
  0
LINE
  5
43E
100
AcDbEntity
  8
_0-1_
  6
CONTINUOUS
 62
     0
100
AcDbLine
 10
1920.177586207
 20
1282.605172414
 11
1920.177586207
 21
1245.005172414
  0
LINE
  5
43F
100
AcDbEntity
  8
_0-1_
  6
CONTINUOUS
 62
     0
100
AcDbLine
 10
1732.077586207
 20
1302.305172414
 11
1732.077586207
 21
1137.905172414
  0
LINE
  5
440
100
AcDbEntity
  8
_0-1_
  6
CONTINUOUS
 62
     0
100
AcDbLine
 10
1742.477586207
 20
1302.305172414
 11
1737.277586207
 21
1137.905172414
  0
LINE
  5
441
100
AcDbEntity
  8
_0-1_
  6
CONTINUOUS
 62
     0
100
AcDbLine
 10
2368.277586207
 20
834.7051724138
 11
2368.277586207
 21
1137.805172414
  0
LINE
  5
442
100
AcDbEntity
  8
_0-1_
  6
CONTINUOUS
 62
     0
100
AcDbLine
 10
2252.077586207
 20
774.7051724138
 11
2308.277586207
 21
774.7051724138
  0
LINE
  5
443
100
AcDbEntity
  8
_0-1_
  6
CONTINUOUS
 62
     0
100
AcDbLine
 10
2192.077586207
 20
834.7051724138
 11
2192.077586207
 21
1137.805172414
  0
LINE
  5
444
100
AcDbEntity
  8
_0-1_
  6
CONTINUOUS
 62
     0
100
AcDbLine
 10
1839.877586207
 20
1112.705172414
 11
1807.177586207
 21
1112.705172414
  0
LINE
  5
445
100
AcDbEntity
  8
_0-1_
  6
CONTINUOUS
 62
     0
100
AcDbLine
 10
1807.177586207
 20
1112.705172414
 11
1767.277586207
 21
1084.105172414
  0
LINE
  5
446
100
AcDbEntity
  8
_0-1_
  6
CONTINUOUS
 62
     0
100
AcDbLine
 10
1853.477586207
 20
1137.805172414
 11
1839.877586207
 21
1112.705172414
  0
LINE
  5
447
100
AcDbEntity
  8
_0-1_
  6
CONTINUOUS
 62
     0
100
AcDbLine
 10
2133.477586207
 20
1098.905172414
 11
2192.077586207
 21
1122.205172414
  0
LINE
  5
448
100
AcDbEntity
  8
_0-1_
  6
CONTINUOUS
 62
     0
100
AcDbLine
 10
2156.277586207
 20
1057.705172414
 11
2192.077586207
 21
1070.905172414
  0
LINE
  5
449
100
AcDbEntity
  8
_0-1_
  6
CONTINUOUS
 62
     0
100
AcDbLine
 10
2080.277586207
 20
972.4051724138
 11
2128.977586207
 21
1037.405172414
  0
LINE
  5
44A
100
AcDbEntity
  8
_0-1_
  6
CONTINUOUS
 62
     0
100
AcDbLine
 10
2059.877586207
 20
1025.705172414
 11
2110.977586207
 21
1083.005172414
  0
LINE
  5
44B
100
AcDbEntity
  8
_0-1_
  6
CONTINUOUS
 62
     0
100
AcDbLine
 10
739.7775862069
 20
1526.305172414
 11
2419.977586207
 21
1526.305172414
  0
LINE
  5
44C
100
AcDbEntity
  8
_0-1_
  6
CONTINUOUS
 62
     0
100
AcDbLine
 10
750.7775862069
 20
1383.405172414
 11
2408.977586207
 21
1383.405172414
  0
LINE
  5
44D
100
AcDbEntity
  8
_0-1_
  6
CONTINUOUS
 62
     0
100
AcDbLine
 10
2315.877586207
 20
2167.205172414
 11
2315.877586207
 21
1372.305172414
  0
LINE
  5
44E
100
AcDbEntity
  8
_0-1_
  6
CONTINUOUS
 62
     0
100
AcDbLine
 10
843.8775862069
 20
2167.205172414
 11
843.8775862069
 21
1372.305172414
  0
ARC
  5
44F
100
AcDbEntity
  8
_0-1_
  6
CONTINUOUS
 62
     0
100
AcDbCircle
 10
772.3775862069
 20
1332.305172414
 40
40
100
AcDbArc
 50
90
 51
180
  0
ARC
  5
450
100
AcDbEntity
  8
_0-1_
  6
CONTINUOUS
 62
     0
100
AcDbCircle
 10
783.5775862069
 20
1177.905172414
 40
40
100
AcDbArc
 50
180
 51
270
  0
ARC
  5
451
100
AcDbEntity
  8
_0-1_
  6
CONTINUOUS
 62
     0
100
AcDbCircle
 10
1288.477586207
 20
1295.005172414
 40
557.3
100
AcDbArc
 50
176.1634674072
 51
192.1262359619
  0
ARC
  5
452
100
AcDbEntity
  8
_0-1_
  6
CONTINUOUS
 62
     0
100
AcDbCircle
 10
803.7775862069
 20
2168.105172414
 40
20
100
AcDbArc
 50
0
 51
82.19958496094
  0
ARC
  5
453
100
AcDbEntity
  8
_0-1_
  6
CONTINUOUS
 62
     0
100
AcDbCircle
 10
784.3775862069
 20
2151.205172414
 40
20
100
AcDbArc
 50
0
 51
82.19944763184
  0
ARC
  5
454
100
AcDbEntity
  8
_0-1_
  6
CONTINUOUS
 62
     0
100
AcDbCircle
 10
788.8775862069
 20
2091.505172414
 40
34.4
100
AcDbArc
 50
-81.77569580078
 51
-23.85461425781
  0
ARC
  5
455
100
AcDbEntity
  8
_0-1_
  6
CONTINUOUS
 62
     0
100
AcDbCircle
 10
907.6775862069
 20
2084.305172414
 40
117
100
AcDbArc
 50
175.1767578125
 51
193.2892303467
  0
ARC
  5
456
100
AcDbEntity
  8
_0-1_
  6
CONTINUOUS
 62
     0
100
AcDbCircle
 10
853.9775862069
 20
2061.205172414
 40
46.3
100
AcDbArc
 50
178.2944488525
 51
257.4358520508
  0
ARC
  5
457
100
AcDbEntity
  8
_0-1_
  6
CONTINUOUS
 62
     0
100
AcDbCircle
 10
926.4775862069
 20
2560.005172414
 40
70
100
AcDbArc
 50
90
 51
169.415802002
  0
ARC
  5
458
100
AcDbEntity
  8
_0-1_
  6
CONTINUOUS
 62
     0
100
AcDbCircle
 10
969.4775862069
 20
2590.905172414
 40
140
100
AcDbArc
 50
96.45880126953
 51
169.415802002
  0
ARC
  5
459
100
AcDbEntity
  8
_0-1_
  6
CONTINUOUS
 62
     0
100
AcDbCircle
 10
791.1775862069
 20
1715.605172414
 40
20
100
AcDbArc
 50
0
 51
90.00032043457
  0
ARC
  5
45A
100
AcDbEntity
  8
_0-1_
  6
CONTINUOUS
 62
     0
100
AcDbCircle
 10
791.1775862069
 20
1663.705172414
 40
20
100
AcDbArc
 50
-89.99969482422
 51
0
  0
ARC
  5
45B
100
AcDbEntity
  8
_0-1_
  6
CONTINUOUS
 62
     0
100
AcDbCircle
 10
626.9775862069
 20
2232.705172414
 40
20
100
AcDbArc
 50
180
 51
262.1994628906
  0
ARC
  5
45C
100
AcDbEntity
  8
_0-1_
  6
CONTINUOUS
 62
     0
100
AcDbCircle
 10
607.5775862069
 20
2215.805172414
 40
20
100
AcDbArc
 50
180
 51
262.1997680664
  0
ARC
  5
45D
100
AcDbEntity
  8
_0-1_
  6
CONTINUOUS
 62
     0
100
AcDbCircle
 10
644.3775862069
 20
2282.605172414
 40
40
100
AcDbArc
 50
-89.99969482422
 51
0
  0
ARC
  5
45E
100
AcDbEntity
  8
_0-1_
  6
CONTINUOUS
 62
     0
100
AcDbCircle
 10
581.8775862069
 20
2282.605172414
 40
40
100
AcDbArc
 50
180
 51
270.0003051758
  0
ARC
  5
45F
100
AcDbEntity
  8
_0-1_
  6
CONTINUOUS
 62
     0
100
AcDbCircle
 10
644.3775862069
 20
2436.905172414
 40
40
100
AcDbArc
 50
0
 51
90.00032043457
  0
ARC
  5
460
100
AcDbEntity
  8
_0-1_
  6
CONTINUOUS
 62
     0
100
AcDbCircle
 10
581.8775862069
 20
2436.905172414
 40
40
100
AcDbArc
 50
90.00032043457
 51
180
  0
ARC
  5
461
100
AcDbEntity
  8
_0-1_
  6
CONTINUOUS
 62
     0
100
AcDbCircle
 10
963.6775862069
 20
1452.405172414
 40
160.7
100
AcDbArc
 50
-25.40570068359
 51
27.40234375
  0
ARC
  5
462
100
AcDbEntity
  8
_0-1_
  6
CONTINUOUS
 62
     0
100
AcDbCircle
 10
1266.977586207
 20
1440.205172414
 40
40
100
AcDbArc
 50
-144.2171020508
 51
-90
  0
ARC
  5
463
100
AcDbEntity
  8
_0-1_
  6
CONTINUOUS
 62
     0
100
AcDbCircle
 10
1269.577586207
 20
1245.005172414
 40
30
100
AcDbArc
 50
180
 51
270
  0
ARC
  5
464
100
AcDbEntity
  8
_0-1_
  6
CONTINUOUS
 62
     0
100
AcDbCircle
 10
1355.577586207
 20
1245.005172414
 40
30
100
AcDbArc
 50
-90
 51
0
  0
ARC
  5
465
100
AcDbEntity
  8
_0-1_
  6
CONTINUOUS
 62
     0
100
AcDbCircle
 10
1365.577586207
 20
1282.605172414
 40
20
100
AcDbArc
 50
0
 51
90
  0
ARC
  5
466
100
AcDbEntity
  8
_0-1_
  6
CONTINUOUS
 62
     0
100
AcDbCircle
 10
1259.577586207
 20
1282.605172414
 40
20
100
AcDbArc
 50
90
 51
180
  0
ARC
  5
467
100
AcDbEntity
  8
_0-1_
  6
CONTINUOUS
 62
     0
100
AcDbCircle
 10
1437.277586207
 20
1302.305172414
 40
20
100
AcDbArc
 50
89.99937438965
 51
180
  0
ARC
  5
468
100
AcDbEntity
  8
_0-1_
  6
CONTINUOUS
 62
     0
100
AcDbCircle
 10
1437.277586207
 20
1302.305172414
 40
9.5
100
AcDbArc
 50
90
 51
180
  0
ARC
  5
469
100
AcDbEntity
  8
_0-1_
  6
CONTINUOUS
 62
     0
100
AcDbCircle
 10
851.4775862069
 20
834.7051724138
 40
60
100
AcDbArc
 50
180
 51
270
  0
ARC
  5
46A
100
AcDbEntity
  8
_0-1_
  6
CONTINUOUS
 62
     0
100
AcDbCircle
 10
907.6775862069
 20
834.7051724138
 40
60
100
AcDbArc
 50
-90
 51
0.0002136230467406
  0
ARC
  5
46B
100
AcDbEntity
  8
_0-1_
  6
CONTINUOUS
 62
     0
100
AcDbCircle
 10
805.7775862069
 20
1028.705172414
 40
61.4
100
AcDbArc
 50
-144.4322967529
 51
-103.400970459
  0
ARC
  5
46C
100
AcDbEntity
  8
_0-1_
  6
CONTINUOUS
 62
     0
100
AcDbCircle
 10
1003.977586207
 20
1043.105172414
 40
60
100
AcDbArc
 50
41.69262695313
 51
68.2433013916
  0
ARC
  5
46D
100
AcDbEntity
  8
_0-1_
  6
CONTINUOUS
 62
     0
100
AcDbCircle
 10
982.7775862069
 20
1001.405172414
 40
60
100
AcDbArc
 50
36.85191345215
 51
69.81042480469
  0
ARC
  5
46E
100
AcDbEntity
  8
_0-1_
  6
CONTINUOUS
 62
     0
100
AcDbCircle
 10
1127.477586207
 20
1008.405172414
 40
60
100
AcDbArc
 50
-143.1481933594
 51
-90
  0
ARC
  5
46F
100
AcDbEntity
  8
_0-1_
  6
CONTINUOUS
 62
     0
100
AcDbCircle
 10
1144.677586207
 20
1065.605172414
 40
60
100
AcDbArc
 50
-138.3075256348
 51
-90
  0
ARC
  5
470
100
AcDbEntity
  8
_0-1_
  6
CONTINUOUS
 62
     0
100
AcDbCircle
 10
2387.377586207
 20
1332.305172414
 40
40
100
AcDbArc
 50
0
 51
90
  0
ARC
  5
471
100
AcDbEntity
  8
_0-1_
  6
CONTINUOUS
 62
     0
100
AcDbCircle
 10
2376.177586207
 20
1177.905172414
 40
40
100
AcDbArc
 50
-90
 51
0
  0
ARC
  5
472
100
AcDbEntity
  8
_0-1_
  6
CONTINUOUS
 62
     0
100
AcDbCircle
 10
1871.277586207
 20
1295.005172414
 40
557.3
100
AcDbArc
 50
-12.12622070312
 51
3.836532592773
  0
ARC
  5
473
100
AcDbEntity
  8
_0-1_
  6
CONTINUOUS
 62
     0
100
AcDbCircle
 10
2355.977586207
 20
2168.105172414
 40
20
100
AcDbArc
 50
97.80041503906
 51
180
  0
ARC
  5
474
100
AcDbEntity
  8
_0-1_
  6
CONTINUOUS
 62
     0
100
AcDbCircle
 10
2375.377586207
 20
2151.205172414
 40
20
100
AcDbArc
 50
97.80055236816
 51
180
  0
ARC
  5
475
100
AcDbEntity
  8
_0-1_
  6
CONTINUOUS
 62
     0
100
AcDbCircle
 10
2370.877586207
 20
2091.505172414
 40
34.4
100
AcDbArc
 50
-156.1453704834
 51
-98.22430419922
  0
ARC
  5
476
100
AcDbEntity
  8
_0-1_
  6
CONTINUOUS
 62
     0
100
AcDbCircle
 10
2252.077586207
 20
2084.305172414
 40
117
100
AcDbArc
 50
-13.28924560547
 51
4.8232421875
  0
ARC
  5
477
100
AcDbEntity
  8
_0-1_
  6
CONTINUOUS
 62
     0
100
AcDbCircle
 10
2305.777586207
 20
2061.205172414
 40
46.3
100
AcDbArc
 50
-77.43585205078
 51
1.705551147461
  0
ARC
  5
478
100
AcDbEntity
  8
_0-1_
  6
CONTINUOUS
 62
     0
100
AcDbCircle
 10
2233.277586207
 20
2560.005172414
 40
70
100
AcDbArc
 50
10.58419799805
 51
90
  0
ARC
  5
479
100
AcDbEntity
  8
_0-1_
  6
CONTINUOUS
 62
     0
100
AcDbCircle
 10
2190.277586207
 20
2590.905172414
 40
140
100
AcDbArc
 50
10.58419799805
 51
83.54119873047
  0
ARC
  5
47A
100
AcDbEntity
  8
_0-1_
  6
CONTINUOUS
 62
     0
100
AcDbCircle
 10
2368.577586207
 20
1715.605172414
 40
20
100
AcDbArc
 50
89.99967956543
 51
180
  0
ARC
  5
47B
100
AcDbEntity
  8
_0-1_
  6
CONTINUOUS
 62
     0
100
AcDbCircle
 10
2368.577586207
 20
1663.705172414
 40
20
100
AcDbArc
 50
180
 51
269.9996948242
  0
ARC
  5
47C
100
AcDbEntity
  8
_0-1_
  6
CONTINUOUS
 62
     0
100
AcDbCircle
 10
2532.777586207
 20
2232.705172414
 40
20
100
AcDbArc
 50
-82.19946289063
 51
0
  0
ARC
  5
47D
100
AcDbEntity
  8
_0-1_
  6
CONTINUOUS
 62
     0
100
AcDbCircle
 10
2552.177586207
 20
2215.805172414
 40
20
100
AcDbArc
 50
-82.19976806641
 51
0
  0
ARC
  5
47E
100
AcDbEntity
  8
_0-1_
  6
CONTINUOUS
 62
     0
100
AcDbCircle
 10
2515.377586207
 20
2282.605172414
 40
40
100
AcDbArc
 50
180
 51
269.9996948242
  0
ARC
  5
47F
100
AcDbEntity
  8
_0-1_
  6
CONTINUOUS
 62
     0
100
AcDbCircle
 10
2577.877586207
 20
2282.605172414
 40
40
100
AcDbArc
 50
-90.00030517578
 51
0
  0
ARC
  5
480
100
AcDbEntity
  8
_0-1_
  6
CONTINUOUS
 62
     0
100
AcDbCircle
 10
2515.377586207
 20
2436.905172414
 40
40
100
AcDbArc
 50
89.99967956543
 51
180
  0
ARC
  5
481
100
AcDbEntity
  8
_0-1_
  6
CONTINUOUS
 62
     0
100
AcDbCircle
 10
2577.877586207
 20
2436.905172414
 40
40
100
AcDbArc
 50
0
 51
89.99967956543
  0
ARC
  5
482
100
AcDbEntity
  8
_0-1_
  6
CONTINUOUS
 62
     0
100
AcDbCircle
 10
2196.077586207
 20
1452.405172414
 40
160.7
100
AcDbArc
 50
152.59765625
 51
205.4057006836
  0
ARC
  5
483
100
AcDbEntity
  8
_0-1_
  6
CONTINUOUS
 62
     0
100
AcDbCircle
 10
1892.777586207
 20
1440.205172414
 40
40
100
AcDbArc
 50
-90
 51
-35.78289794922
  0
ARC
  5
484
100
AcDbEntity
  8
_0-1_
  6
CONTINUOUS
 62
     0
100
AcDbCircle
 10
1890.177586207
 20
1245.005172414
 40
30
100
AcDbArc
 50
-90
 51
0
  0
ARC
  5
485
100
AcDbEntity
  8
_0-1_
  6
CONTINUOUS
 62
     0
100
AcDbCircle
 10
1804.177586207
 20
1245.005172414
 40
30
100
AcDbArc
 50
180
 51
270
  0
ARC
  5
486
100
AcDbEntity
  8
_0-1_
  6
CONTINUOUS
 62
     0
100
AcDbCircle
 10
1794.177586207
 20
1282.605172414
 40
20
100
AcDbArc
 50
90
 51
180
  0
ARC
  5
487
100
AcDbEntity
  8
_0-1_
  6
CONTINUOUS
 62
     0
100
AcDbCircle
 10
1900.177586207
 20
1282.605172414
 40
20
100
AcDbArc
 50
0
 51
90
  0
ARC
  5
488
100
AcDbEntity
  8
_0-1_
  6
CONTINUOUS
 62
     0
100
AcDbCircle
 10
1722.477586207
 20
1302.305172414
 40
20
100
AcDbArc
 50
0
 51
90.00062561035
  0
ARC
  5
489
100
AcDbEntity
  8
_0-1_
  6
CONTINUOUS
 62
     0
100
AcDbCircle
 10
1722.477586207
 20
1302.305172414
 40
9.5
100
AcDbArc
 50
0
 51
90
  0
ARC
  5
48A
100
AcDbEntity
  8
_0-1_
  6
CONTINUOUS
 62
     0
100
AcDbCircle
 10
2308.277586207
 20
834.7051724138
 40
60
100
AcDbArc
 50
-90
 51
0
  0
ARC
  5
48B
100
AcDbEntity
  8
_0-1_
  6
CONTINUOUS
 62
     0
100
AcDbCircle
 10
2252.077586207
 20
834.7051724138
 40
60
100
AcDbArc
 50
179.999786377
 51
270
  0
ARC
  5
48C
100
AcDbEntity
  8
_0-1_
  6
CONTINUOUS
 62
     0
100
AcDbCircle
 10
2353.977586207
 20
1028.705172414
 40
61.4
100
AcDbArc
 50
-76.59902954102
 51
-35.56768798828
  0
ARC
  5
48D
100
AcDbEntity
  8
_0-1_
  6
CONTINUOUS
 62
     0
100
AcDbCircle
 10
2155.777586207
 20
1043.105172414
 40
60
100
AcDbArc
 50
111.7566986084
 51
138.3073730469
  0
ARC
  5
48E
100
AcDbEntity
  8
_0-1_
  6
CONTINUOUS
 62
     0
100
AcDbCircle
 10
2176.977586207
 20
1001.405172414
 40
60
100
AcDbArc
 50
110.1895751953
 51
143.1480865479
  0
ARC
  5
48F
100
AcDbEntity
  8
_0-1_
  6
CONTINUOUS
 62
     0
100
AcDbCircle
 10
2032.277586207
 20
1008.405172414
 40
60
100
AcDbArc
 50
-90
 51
-36.85180664063
  0
ARC
  5
490
100
AcDbEntity
  8
_0-1_
  6
CONTINUOUS
 62
     0
100
AcDbCircle
 10
2015.077586207
 20
1065.605172414
 40
60
100
AcDbArc
 50
-90
 51
-41.69247436523
  0
ARC
  5
491
100
AcDbEntity
  8
_0-1_
  6
CONTINUOUS
 62
     0
100
AcDbCircle
 10
1579.877586207
 20
-3696.794827586
 40
6461.2
100
AcDbArc
 50
85.74482727051
 51
94.25517272949
  0
ARC
  5
492
100
AcDbEntity
  8
_0-1_
  6
CONTINUOUS
 62
     0
100
AcDbCircle
 10
1579.877586207
 20
-7349.494827586
 40
9986
100
AcDbArc
 50
87.93472290039
 51
92.06527709961
  0
ARC
  5
493
100
AcDbEntity
  8
_0-1_
  6
CONTINUOUS
 62
     0
100
AcDbCircle
 10
1579.877586207
 20
18455.00517241
 40
16304.4
100
AcDbArc
 50
-92.65802001953
 51
-87.34197998047
  0
ARC
  5
494
100
AcDbEntity
  8
_0-1_
  6
CONTINUOUS
 62
     0
100
AcDbCircle
 10
1579.877586207
 20
9846.705172414
 40
7865.1
100
AcDbArc
 50
-95.3694152832
 51
-84.6305847168
  0
ARC
  5
495
100
AcDbEntity
  8
_0-1_
  6
CONTINUOUS
 62
     0
100
AcDbCircle
 10
-1723.522413793
 20
1775.205172414
 40
4151
100
AcDbArc
 50
-5.416198730469
 51
5.539489746094
  0
ARC
  5
496
100
AcDbEntity
  8
_0-1_
  6
CONTINUOUS
 62
     0
100
AcDbCircle
 10
4883.277586207
 20
1775.205172414
 40
4151
100
AcDbArc
 50
174.4605102539
 51
185.4162139893
  0
ENDBLK
  5
497
100
AcDbEntity
 67
     1
  8
_0-1_
100
AcDbBlockEnd
  0
ENDSEC
  0
SECTION
  2
ENTITIES
  0
LINE
  5
498
100
AcDbEntity
  8
_0-1_
  6
CONTINUOUS
 62
     0
100
AcDbLine
 10
445.3948275862
 20
774.7051724138
 11
8133.325862069
 21
774.7051724138
  0
CIRCLE
  5
499
100
AcDbEntity
  8
_0-2_
  6
CONTINUOUS
 62
     0
100
AcDbCircle
 10
8464.605172414
 20
774.7051724138
 40
3
  0
CIRCLE
  5
49A
100
AcDbEntity
  8
_0-2_
  6
CONTINUOUS
 62
     0
100
AcDbCircle
 10
8464.605172414
 20
2764.405172414
 40
3
  0
LINE
  5
49B
100
AcDbEntity
  8
_0-2_
  6
CONTINUOUS
 62
     0
100
AcDbLine
 10
8464.605172414
 20
774.7051724138
 11
8314.605172414
 21
774.7051724138
  0
LINE
  5
49C
100
AcDbEntity
  8
_0-2_
  6
CONTINUOUS
 62
     0
100
AcDbLine
 10
8464.605172414
 20
2764.405172414
 11
8314.605172414
 21
2764.405172414
  0
CIRCLE
  5
49D
100
AcDbEntity
  8
_0-2_
  6
CONTINUOUS
 62
     0
100
AcDbCircle
 10
3474.705172414
 20
474.7051724138
 40
3
  0
CIRCLE
  5
49E
100
AcDbEntity
  8
_0-2_
  6
CONTINUOUS
 62
     0
100
AcDbCircle
 10
8164.605172414
 20
474.7051724138
 40
3
  0
LINE
  5
49F
100
AcDbEntity
  8
_0-2_
  6
CONTINUOUS
 62
     0
100
AcDbLine
 10
3474.705172414
 20
474.7051724138
 11
3474.705172414
 21
624.7051724138
  0
LINE
  5
4A0
100
AcDbEntity
  8
_0-2_
  6
CONTINUOUS
 62
     0
100
AcDbLine
 10
8164.605172414
 20
474.7051724138
 11
8164.605172414
 21
624.7051724138
  0
CIRCLE
  5
4A1
100
AcDbEntity
  8
_0-2_
  6
CONTINUOUS
 62
     0
100
AcDbCircle
 10
8464.605172414
 20
3897.894827586
 40
3
  0
CIRCLE
  5
4A2
100
AcDbEntity
  8
_0-2_
  6
CONTINUOUS
 62
     0
100
AcDbCircle
 10
8464.605172414
 20
5592.894827586
 40
3
  0
LINE
  5
4A3
100
AcDbEntity
  8
_0-2_
  6
CONTINUOUS
 62
     0
100
AcDbLine
 10
8464.605172414
 20
3897.894827586
 11
8314.605172414
 21
3897.894827586
  0
LINE
  5
4A4
100
AcDbEntity
  8
_0-2_
  6
CONTINUOUS
 62
     0
100
AcDbLine
 10
8464.605172414
 20
5592.894827586
 11
8314.605172414
 21
5592.894827586
  0
LINE
  5
4A5
100
AcDbEntity
  8
_0-2_
  6
CONTINUOUS
 62
     0
100
AcDbLine
 10
8464.605172414
 20
774.7051724138
 11
8464.605172414
 21
2764.405172414
  0
TEXT
  5
4A6
100
AcDbEntity
  8
_0-2_
  6
CONTINUOUS
 62
     0
100
AcDbText
 10
8449.605172414
 20
1642.055172414
 40
90
  1
1,990
 50
90
  7
STANDARD
100
AcDbText
  0
LINE
  5
4A7
100
AcDbEntity
  8
_0-2_
  6
CONTINUOUS
 62
     0
100
AcDbLine
 10
3474.705172414
 20
474.7051724138
 11
8164.605172414
 21
474.7051724138
  0
TEXT
  5
4A8
100
AcDbEntity
  8
_0-2_
  6
CONTINUOUS
 62
     0
100
AcDbText
 10
5692.155172414
 20
489.7051724138
 40
90
  1
4,690
  7
STANDARD
100
AcDbText
  0
LINE
  5
4A9
100
AcDbEntity
  8
_0-2_
  6
CONTINUOUS
 62
     0
100
AcDbLine
 10
8464.605172414
 20
3897.894827586
 11
8464.605172414
 21
5592.894827586
  0
TEXT
  5
4AA
100
AcDbEntity
  8
_0-2_
  6
CONTINUOUS
 62
     0
100
AcDbText
 10
8449.605172414
 20
4617.894827586
 40
90
  1
1,695
 50
90
  7
STANDARD
100
AcDbText
  0
INSERT
  5
4AB
100
AcDbEntity
  8
_0-1_
100
AcDbBlockReference
  2
BK2
 10
0
 20
0
  0
INSERT
  5
4AC
100
AcDbEntity
  8
_0-2_
100
AcDbBlockReference
  2
BK3
 10
0
 20
0
  0
INSERT
  5
4AD
100
AcDbEntity
  8
_0-1_
100
AcDbBlockReference
  2
BK4
 10
0
 20
0
  0
ENDSEC
  0
SECTION
  2
OBJECTS
  0
DICTIONARY
  5
4AE
100
AcDbDictionary
  3
ACAD_GROUP
350
4AF
  3
ACAD_IMAGE_DICT
350
4B0
  3
ACAD_MLINESTYLE
350
4B1
  0
DICTIONARY
  5
4AF
330
4AE
100
AcDbDictionary
  0
DICTIONARY
  5
4B0
100
AcDbDictionary
  0
DICTIONARY
  5
4B1
100
AcDbDictionary
  3
STANDARD
350
4B2
  0
RASTERVARIABLES
  5
4B3
100
AcDbRasterVariables
 90
     0
 70
     1
 71
     1
 72
     0
  0
MLINESTYLE
  5
4B2
100
AcDbMlineStyle
  2
STANDARD
 70
     0
  3

 62
   256
 51
90
 52
90
 71
     0
  0
ENDSEC
  0
EOF
